» » »

Zeke, Razorblade Tabs (ver.1)

Artists:  A B C D E F G H I J K L M N O P Q R S T U V W X Y Z # 

Razorblade Tabs (ver.1)

Zeke Tabs
 Rating:
4/5 (4 votes)
Razorblade lessons Tabs too difficult? Try these video lessons and learn fast
                razorblade


zeke






e:--------------------------------|
B:--------------------------------|
G:--------------------------------|
D:--------------------------------|
A:-9-9--7--9-9--7--9-9--7--9-9--7-|
E:-7-7--5--7-7--5--7-7--5--7-7--5-|


e:----------------|
B:----------------|
G:----------------|
D:----------------|
A:-2-2-2-2-2--5-7-|
E:-0-0-0-0-0--3-5-|


e:---------------|
B:---------------|
G:---------------|
D:---------------|
A:-9-9-9-9-9-5-7-|
E:-7-7-7-7-7-3-5-|

e:----------------|
B:----------------|
G:----------------|
D:----------------|
A:-2-2-2-2-2--5-7-|
E:-0-0-0-0-0--3-5-|


e:---------------------------|
B:---------------------------|
G:---------------------------|
D:---------------------------|
A:-9-9-9-9-9-7-9-9-9-9-9-9-7-|
E:-7-7-7-7-7-5-7-7-7-7-7-7-5-|


e:-------------------------------|
B:-------------------------------|
G:-------------------------------|
D:-------------------------------|
A:-2-2-2-2-2--5-7--2-2-2-2-2-5-8-|
E:-0-0-0-0-0--3-5--0-0-0-0-0-3-6-|

e:--------------------------------|
B:--------------------------------|
G:--------------------------------|
D:--------------------------------|
A:-9-9--7--9-9--7--9-9--7--9-9--7-|
E:-7-7--5--7-7--5--7-7--5--7-7--5-|

e:-------------------------------|
B:-------------------------------|
G:-------------------------------|
D:-------------------------------|
A:-2-2-2-2-2--5-7--2-2-2-2-2-5-8-|
E:-0-0-0-0-0--3-5--0-0-0-0-0-3-6-|

e:---------------|
B:---------------|
G:---------------|
D:---------------|
A:-9-9-9-9-9-5-7-|
E:-7-7-7-7-7-3-5-|

e:-------------------------------|
B:-------------------------------|
G:-------------------------------|
D:-------------------------------|
A:-2-2-2-2-2--5-7--2-2-2-2-2-5-8-|
E:-0-0-0-0-0--3-5--0-0-0-0-0-3-6-|


e:-----------------------|
B:-----------------------|
G:-----------------------|
D:-----------------------|
A:-9-9-9--5-7-9-9-9--5-7-|
E:-7-7-7--3-5-7-7-7--3-5-|

e:-------------------------------|
B:-------------------------------|
G:-------------------------------|
D:-------------------------------|
A:-2-2-2-2-2--5-7--2-2-2-2-2-5-8-|
E:-0-0-0-0-0--3-5--0-0-0-0-0-3-6-|


e:----------------|
B:----------------|
G:----------------|
D:----------------|
A:-2-2-2-2-2--5-7-|
E:-0-0-0-0-0--3-5-|

e:------------------------|
B:------------------------|
G:------------------------|
D:-2----------------------|
A:-2----------------------|
E:-0----------------------|
            
Submit corrections

comments powered by Disqus
↑ Back to top | Zeke Tabs for Razorblade. Lyrics for acoustic guitar and electric guitar. Tablatures and chords are parodies/interpretations of the original songs. You may use it for private study, scholarship, research or language learning purposes only