>
 >
Raped

Raped Guitar Tabs

Zeke - Raped chords, tabs, tablatures, lyrics

Guitar lessons | Add/correct | Request | Top 50 tabs Artists:  A B C D E F G H I J K L M N O P Q R S T U V W X Y Z 0-9

Raped Guitar Tabs – Zeke

CD, Sheet music, Poster

Do you like Raped? Share with your friends now
Tabs
raped


zeke






eb:---------------------------------------------------------|
Bb:---------------------------------------------------------|
Gb:-9-7~~~~~----9-7-----------------------------------------|
Db:-----------------9-8-7--5h7p5---5-7-7b-7bf--7------------|
Ab:------------------------------7-------------0------------|
Eb:---------------------------------------------------------|

eb:---------12~~~~--12-------12--12-------12--12-------------------------------------------|
Bb:-15bf~~~------------12-15--------12-15---------15-15-12-15-12-14-12----------------12-15|
Gb:--------------------------------------------------------------------15-14-12-14-15------|
Db:----------------------------------------------------------------------------------------|
Ab:----------------------------------------------------------------------------------------|
Eb:----------------------------------------------------------------------------------------|

eb:-------------------------------------12--------------12-14-12----12----------------|
Bb:-12-14-12-------------------------12----12-15b~~~~------------15----15-14-12-14-12-|
Gb:----------15-12-14-12---12-14-14b--------------------------------------------------|
Db:----------------------14-----------------------------------------------------------|
Ab:-----------------------------------------------------------------------------------|
Eb:-----------------------------------------------------------------------------------|

:-----------------------------------------|
:-----12----------------------------------|
:--15----15-14-12h14p12----12-------------|
:-----------------------14----14~~~~~-----|
:-----------------------------------------|
:-------------------------------------12/-|



eb:-------------12-12-12-12-12-12-12-14-12-12-12-12--14-12-12-12-12-14-12-12-12-12-14-12-12|
Bb:------12h14--12-12-12-12-12-12-12-14-12-12-12-12--14-12-12-12-12-14-12-12-12-12-14-12-12|
Gb:12h13-----------------------------------------------------------------------------------|
Db:----------------------------------------------------------------------------------------|
Ab:----------------------------------------------------------------------------------------|
Eb:----------------------------------------------------------------------------------------|

eb:-12-12-12-15-15-15-15-15-15-15-|
Bb:-12-12-12-15-15-15-15-15-15-15-|
Gb:-------------------------------|
Db:-------------------------------|
Ab:-------------------------------|
Eb:-------------------------------|

eb:-12-12-12-12-12-12-12-14-12-12-12-12--14-12-12-12-12-14-12-12-12-12-14-12-12|
Bb:-12-12-12-12-12-12-12-14-12-12-12-12--14-12-12-12-12-14-12-12-12-12-14-12-12|
Gb:----------------------------------------------------------------------------|
Db:----------------------------------------------------------------------------|
Ab:----------------------------------------------------------------------------|
Eb:----------------------------------------------------------------------------|

eb:-12-12-12-15-15-15-15-15-15-15-|
Bb:-12-12-12-15-15-15-15-15-15-15-|
Gb:-------------------------------|
Db:-------------------------------|
Ab:-------------------------------|
Eb:-------------------------------|

eb:-0-0-0-0-0-0-0-0-0-----------|
Bb:-0-0-0-0-0-0-0-0-0-----------|
Gb:-1-1-1-1-1-1-1-1-1-----------|
Db:-2-2-2-2-2-2-2-2-2--5-5-5--4-|
Ab:-2-2-2-2-2-2-2-2-2--5-5-5--4-|
Eb:-0-0-0-0-0-0-0-0-0--3-3-3--2-|


:---------------------|
:---------------------|
:---------------------|
:------7-7--5-5-5-5-5-|
:-2-2--5-5--3-3-3-3-3-|
:-0-0-----------------|

:---------------------|
:---------------------|
:---------------------|
:------7-7------------|
:-2-2--5-5--5-5-5-5-5-|
:-0-0-------3-3-3-3-3-|

eb:-----12-12-12-12-12-----12-12-12-12-12------12-12-12-12-----12-12-12-12-----12-12-|
Bb:-----12-12-12-12-12-----12-12-12-12-12------12-12-12-12-----12-12-12-12-----12-12-|
Gb:-14b----------------14b-----------------14b-------------14b-------------14b-------|
Db:----------------------------------------------------------------------------------|
Ab:----------------------------------------------------------------------------------|
Eb:----------------------------------------------------------------------------------|

eb:-12-12-12-15-15-15-15-15-15-15-|
Bb:-12-12-12-15-15-15-15-15-15-15-|
Gb:-------------------------------|
Db:-------------------------------|
Ab:-------------------------------|
Eb:-------------------------------|

eb:-----12-12-12-12-12-----12-12-12-12-12------12-12-12-12-----12-12-12-12-----12-12-|
Bb:-----12-12-12-12-12-----12-12-12-12-12------12-12-12-12-----12-12-12-12-----12-12-|
Gb:-14b----------------14b-----------------14b-------------14b-------------14b-------|
Db:----------------------------------------------------------------------------------|
Ab:----------------------------------------------------------------------------------|
Eb:----------------------------------------------------------------------------------|

eb:-12-12-12-15-15-15-15-15-15-15-|
Bb:-12-12-12-15-15-15-15-15-15-15-|
Gb:-------------------------------|
Db:-------------------------------|
Ab:-------------------------------|
Eb:-------------------------------|

eb:-0-0-0-0-0-0-0-0-0-----------|
Bb:-0-0-0-0-0-0-0-0-0-----------|
Gb:-1-1-1-1-1-1-1-1-1-----------|
Db:-2-2-2-2-2-2-2-2-2--5-5-5--4-|
Ab:-2-2-2-2-2-2-2-2-2--5-5-5--4-|
Eb:-0-0-0-0-0-0-0-0-0--3-3-3--2-|


:---------------------|
:---------------------|
:---------------------|
:------7-7--5-5-5-5-5-|
:-2-2--5-5--3-3-3-3-3-|
:-0-0-----------------|

:---------------------|
:---------------------|
:---------------------|
:------7-7------------|
:-2-2--5-5--5-5-5-5-5-|
:-0-0-------3-3-3-3-3-|


eb:-----------------------12b-|
Bb:-14b--------14b--------15b-|
Gb:-14b-14-12--14b-14-12------|
Db:---------------------------|
Ab:---------------------------|
Eb:---------------------------|

eb:-12b~~~~~~~~------------|
Bb:-15b~~~~~~~~------------|
Gb:------------------------|
Db:------------------------|
Ab:------------------------|
Eb:------------------------|

:-----------------------------------------|
:-----------------------------------------|
:-----------------------------------------|
:-----------------------------------------|
:-8-7--5--2-------------------------------|
:-6-5--3--0-------------------------------|





Comments


Popular Zeke tabs & chords
Now You Die Bass Tabs
All Night Tabs
Holley 750 Tabs
I Dont Give A 1 Tabs
I´Ll Be Your Sister Tabs
Love Gun Tabs
Overkill Tabs
Revolution Tabs
Schmidt Value Pack Tabs
Telepath Boy Tabs


Song lyrics



↑ Back to top | Tablatures and chords are parodies/interpretations of the original songs. You may use it for private study, scholarship, research or language learning purposes only
© 2014 AZChords.com Contact us | Privacy policy | DMCA | Add/correct tabs | Request tabs | Top 50 tabs