» » »

Punk Rock Records Tabs (ver.1)

Artists:  A B C D E F G H I J K L M N O P Q R S T U V W X Y Z # 

Punk Rock Records Tabs (ver.1)

Zeke
Rating:
0/5 (0 votes)

Tabs too difficult? Try these video lessons and learn fast.
                punk rock records



zeke











e:-----------------------------|
B:-----------------------------|
G:-----------------------------|
D:--2-2-2-2-2--7--2-2-2-2-2--5-|
A:--0-0-0-0-0--5--0-0-0-0-0--3-|
E:-----------------------------|

gt1 pick slide
:-----------------------------|
:-----------------------------|
:-----------------------------|
:-----------------------------|
:----X/-----------------------|
:----X/-----------------------|
gt2
:-----------------------------|
:-----------------------------|
:--9--7-----------------------|
:--7--5--9-8-7--5-------------|
:--------7-6-5--3-------------|
:-----------------------------|

verse
e:-----------------------------|
B:-----------------------------|
G:-----------------------------|
D:--2-2-2-2-2-2-2-2-2-2-2-2--5-|
A:--0-0-0-0-0-0-0-0-0-0-0-0--3-|
E:-----------------------------|

e:-----------------------------|
B:-----------------------------|
G:-----------------------------|
D:--2-2-2-2-2-2-2-2-2-2-2-2-2-2|
A:--0-0-0-0-0-0-0-0-0-0-0-0-0-0|
E:-----------------------------|

she likes punk records
:--------------------|
:--------------------|
:--------------------|
:-9-9-9--------------|
:-7-7-7-10-10--12-12-|
:-------8--8---10-10-|
she plays it every night
:--------------|
:--------------|
:--------------|
:-9-9-9--------|
:-7-7-7-10--12-|
:-------8---10-|
she likes punk records
:--------------------|
:--------------------|
:--------------------|
:-9-9-9--------------|
:-7-7-7-10-10--12-12-|
:-------8--8---10-10-|
she plays it every night
:--------------|
:--------------|
:--------------|
:-999999999999-|
:-777777777777-|
:--------------|

e:-----------------------------|
B:-----------------------------|
G:-----------------------------|
D:--2-2-2-2-2-2-2-2-2-2-2-2--5-|
A:--0-0-0-0-0-0-0-0-0-0-0-0--3-|
E:-----------------------------|

e:-----------------------------|
B:-----------------------------|
G:-----------------------------|
D:--2-2-2-2-2-2-2-2-2-2-2-2-2-2|
A:--0-0-0-0-0-0-0-0-0-0-0-0-0-0|
E:-----------------------------|

:--------------------|
:--------------------|
:--------------------|
:-9-9-9--------------|
:-7-7-7-10-10--12-12-|
:-------8--8---10-10-|

:--------------|
:--------------|
:--------------|
:-9-9-9--------|
:-7-7-7-10--12-|
:-------8---10-|

:--------------------|
:--------------------|
:--------------------|
:-9-9-9--------------|
:-7-7-7-10-10--12-12-|
:-------8--8---10-10-|

:--------------|
:--------------|
:--------------|
:-999999999999-|
:-777777777777-|
:--------------|

DRUMS

 pick slide
:------------------------------------------------------------------------------------------|
:------------------------------------------------------------------------------------------|
:------5---------5---------5---------5---------5---------5---------5---------5-------------|
:------5---------5---------5---------5---------5---------5---------5---------5-------------|
:-X/-----0-0-0-0---0-0-0-0---0-0-0-0---0-0-0-0---0-0-0-0---0-0-0-0---0-0-0-0---0-0-0-0-0-0-|
:-X/---------------------------------------------------------------------------------------|


:--------------------|
:--------------------|
:--------------------|
:-9-9-9--------------|
:-7-7-7-10-10--12-12-|
:-------8--8---10-10-|

:--------------|
:--------------|
:--------------|
:-9-9-9--------|
:-7-7-7-10--12-|
:-------8---10-|

:--------------------|
:--------------------|
:--------------------|
:-9-9-9--------------|
:-7-7-7-10-10--12-12-|
:-------8--8---10-10-|

repeat
:--------------|
:--------------|
:--------------|
:-9-9-9--------|
:-7-7-7-10--12-|
:-------8---10-|


 repeat
:-------------------|
:-------------------|
:-------------------|
:-9--8--7--5-4--3---|
:-7--6--5--3-2--1---|
:-------------------|

end
:--------------------|
:--------------------|
:--------------------|
:-9--8--7--5-4--3--2-|
:-7--6--5--3-2--1--0-|
:--------------------|
            
Tabs too difficult? Try these video lessons and learn fast.


comments powered by Disqus
↑ Back to top | Tablatures and chords are parodies/interpretations of the original songs. You may use it for private study, scholarship, research or language learning purposes only