» » »

Porked Tabs (ver.1)

Artists:  A B C D E F G H I J K L M N O P Q R S T U V W X Y Z # 

Porked Tabs (ver.1)

Zeke
Rating:
0/5 (0 votes)

Hard to play? Try these video lessons and learn fast.
                porked


zeke






e:-------------------|
B:-------------------|
G:-------------------|
D:-2-2-2-5-7-7-7-7-8-|
A:-0-0-0-3-5-5-5-5-6-|
E:-------------------|

e:--------------------|
B:--------------------|
G:--------------------|
D:-2-2-2-2-2-2--8-7-5-|
A:-0-0-0-0-0-0--6-5-3-|
E:--------------------|

e:---------------------------|
B:---------------------------|
G:---------------------------|
D:-10-10-10-10-10--7-7-7-7-7-|
A:-8--8--8--8--8---5-5-5-5-5-|
E:---------------------------|

:-------------------------------------------------|
:-------------------------------------------------|
:-------------------------------------------------|
:-2-2-2--7-7--5-5-----------2-2-2--7-7--5-5-5-5-5-|
:-0-0-0--5-5--3-3--5-5-5-5--0-0-0--5-5--3-3-3-3-3-|
:------------------3-3-3-3------------------------|

:---------------------------------|
:---------------------------------|
:---------------------------------|
:-2-2-2--7-7--5-5-----------------|
:-0-0-0--5-5--3-3--5-5-5--7--5--3-|
:------------------3-3-3--5--3--1-|

e:-----------------|
B:-----------------|
G:-----------------|
D:-2-2-2-2-2-2-5-7-|
A:-0-0-0-0-0-0-3-5-|
E:-----------------|

e:------------------|
B:------------------|
G:------------------|
D:-2-2-2-2-2-2--8-7-|
A:-0-0-0-0-0-0--6-5-|
E:------------------|

e:-------------|
B:-------------|
G:-------------|
D:-2-2-2-2-2-2-|
A:-0-0-0-0-0-0-|
E:-------------|

e:---------------------------|
B:---------------------------|
G:---------------------------|
D:-10-10-10-10-10--7-7-7-7-7-|
A:-8--8--8--8--8---5-5-5-5-5-|
E:---------------------------|

e:--------------------------------|
B:--------------------------------|
G:--------------------------------|
D:-2-2-2-5-7-7-7-7-8--2-5-7-7-7-7-|
A:-0-0-0-3-5-5-5-5-6--0-3-5-5-5-5-|
E:--------------------------------|

e:------------------------|
B:------------------------|
G:------------------------|
D:--8--7------------------|
A:--6--5--5--7------------|
E:--------3--5------------|
            
Hard to play? Try these video lessons and learn fast. | Correct




comments powered by Disqus
↑ Back to top | Tablatures and chords are parodies/interpretations of the original songs. You may use it for private study, scholarship, research or language learning purposes only