» » »

Overkill Tabs (ver.1)

Artists:  A B C D E F G H I J K L M N O P Q R S T U V W X Y Z # 

Overkill Tabs (ver.1)

Zeke
Rating:
0/5 (0 votes)

Tabs too difficult? Try these video lessons and learn fast.
                overkill


zeke






e:-----------------------|
B:-----------------------|
G:-----------------------|
D:-2-2--5-5--7-7--8--8-8-|
A:-0-0--3-3--5-5--6--6-6-|
E:-----------------------|

e:----------------------------------------------------------|
B:----------------------------------------------------------|
G:----------------------------------------------------------|
D:-7-7-7-7-7-7-7-7-7-7-7-7-7-7--9-9-9-9-9-9-9-9-9-9-9-9-9-9-|
A:-5-5-5-5-5-5-5-5-5-5-5-5-5-5--7-7-7-7-7-7-7-7-7-7-7-7-7-7-|
E:----------------------------------------------------------|

e:-----------------------|
B:-----------------------|
G:-----------------------|
D:-2-2--5-5--7-7--8--8-8-|
A:-0-0--3-3--5-5--6--6-6-|
E:-----------------------|

e:---|
B:---|
G:---|
D:-2-|
A:-0-|
E:---|

e:-----------------------|
B:-----------------------|
G:-----------------------|
D:-2-2--5-5--7-7--8--8-8-|
A:-0-0--3-3--5-5--6--6-6-|
E:-----------------------|

e:--------------------------------------------------|
B:--------------------------------------------------|
G:--------------------------------------------------|
D:-7-7-7-7-7-7-7-7-7-7-7-7-7-7--9-8-7--9-8-7--9-8-7-|
A:-5-5-5-5-5-5-5-5-5-5-5-5-5-5--7-6-5--7-6-5--7-6-5-|
E:--------------------------------------------------|

                                       fdbk
:-----------------------------------------------|
:-----------------------------------------------|
:-----------------------------------------------|
:-7/---5--5-5-5-5-5-5-5-5-5-5-5-5-5-5-----------|
:-5/0--3--3-3-3-3-3-3-3-3-3-3-3-3-3-3-----------|
:-----------------------------------------------|


e:-----------------------------|
B:-----------------------------|
G:-----------------------------|
D:-----------------------------|
A:--7-5-7-5-7-5-7-5-7-5-7-5--7-|
E:--5-3-5-3-5-3-5-3-5-3-5-3--5-|
            
Tabs too difficult? Try these video lessons and learn fast.




comments powered by Disqus
↑ Back to top | Tablatures and chords are parodies/interpretations of the original songs. You may use it for private study, scholarship, research or language learning purposes only