» » »

Zeke, Out Of Love Tabs (ver.1)

Artists:  A B C D E F G H I J K L M N O P Q R S T U V W X Y Z # 

Out Of Love Tabs (ver.1)

Zeke Tabs
 Rating:
4/5 (4 votes)
Out Of Love lessons Tabs too difficult? Try these video lessons and learn fast
1
                out of love


zeke






e:-----------------------------------------------------------------|
B:-----------------------------------------------------------------|
G:-----------------------------------------------------------------|
D:-4-4-4-4-4-4---4-4-4-4-4---4-4-4-4-4--10-10-10-9-9-9-4-4-4-------|
A:-2-2-2-2-2-2-0-2-2-2-2-2-0-2-2-2-2-2--8--8--8--7-7-7-2-2-2-0-2-0-|
E:-----------------------------------------------------------------|

e:---------------------------|
B:---------------------------|
G:---------------------------|
D:---------------------------|
A:-4-4-4-4-4-4------------4--|
E:-2-2-2-2-2-2--0-2-0-2-0-2--|

e:--------------------------------|
B:--------------------------------|
G:--------------------------------|
D:---4---7----4---7----4---7----4-|
A:-0-2-0-5--0-2-0-5--0-2-0-5--0-2-|
E:--------------------------------|

e:-----------------------------------------------------------------|
B:-----------------------------------------------------------------|
G:-----------------------------------------------------------------|
D:-4-4-4-4-4-4---4-4-4-4-4---4-4-4-4-4--10-10-10-9-9-9-4-4-4-------|
A:-2-2-2-2-2-2-0-2-2-2-2-2-0-2-2-2-2-2--8--8--8--7-7-7-2-2-2-0-2-0-|
E:-----------------------------------------------------------------|

e:---------------------------|
B:---------------------------|
G:---------------------------|
D:---------------------------|
A:-4-4-4-4-4-4------------4--|
E:-2-2-2-2-2-2--0-2-0-2-0-2--|

e:--------------------------------|
B:--------------------------------|
G:--------------------------------|
D:---4---7----4---7----4---7----4-|
A:-0-2-0-5--0-2-0-5--0-2-0-5--0-2-|
E:--------------------------------|


:--------------------------------------------------------------------------------------|
:-3333333-44444-55555-66666-77777-88888--9-9-9-9-10-10-10-11-11-11-11-11----12-15-15bf-|
:-4444444-55555-66666-77777-88888-99999-10101010-11-11-11-12-12-12-12-12-13------------|
:--------------------------------------------------------------------------------------|
:--------------------------------------------------------------------------------------|
:--------------------------------------------------------------------------------------|

e:--------------------------------|
B:--------------------------------|
G:--------------------------------|
D:---4---7----4---7----4---7----4-|
A:-0-2-0-5--0-2-0-5--0-2-0-5--0-2-|
E:--------------------------------|

e:------------------------|
B:--------7---------------|
G:-9bp7-9---9p7-9-7-------|
D:------------------9-9---|
A:------------------------|
E:------------------------|

e:-----------------------------------------------------------------|
B:-----------------------------------------------------------------|
G:-----------------------------------------------------------------|
D:-4-4-4-4-4-4---4-4-4-4-4---4-4-4-4-4--10-10-10-9-9-9-4-4-4-------|
A:-2-2-2-2-2-2-0-2-2-2-2-2-0-2-2-2-2-2--8--8--8--7-7-7-2-2-2-0-2-0-|
E:-----------------------------------------------------------------|

e:---------------------------|
B:---------------------------|
G:---------------------------|
D:---------------------------|
A:-4-4-4-4-4-4------------4--|
E:-2-2-2-2-2-2--0-2-0-2-0-2--|

e:------------------------------------------------|
B:------------------------------------------------|
G:-4---4---4---4---4---4---4---4---44444444444444-|
D:-4---4---4---4---4---4---4---4---44444444444444-|
A:-2---2---2---2---2---2---2---2---22222222222222-|
E:------------------------------------------------|

:-----------------------------------------|
:-----------------------------------------|
:-4/--------------------------------------|
:-4/--------------------------------------|
:-2/--------------------------------------|
:-----------------------------------------|
            
Submit corrections

comments powered by Disqus
↑ Back to top | Zeke Tabs for Out Of Love. Lyrics for acoustic guitar and electric guitar. 1 Tablatures and chords are parodies/interpretations of the original songs. You may use it for private study, scholarship, research or language learning purposes only