» » »

Zeke, Mystery Train Tabs (ver.1)

Artists:  A B C D E F G H I J K L M N O P Q R S T U V W X Y Z # 

Mystery Train Tabs (ver.1)

Zeke Tabs
 Rating:
4/5 (4 votes)
Mystery Train lessons Tabs too difficult? Try these video lessons and learn fast
                mystery train


zeke






eb:------------------------|
Bb:------------------------|
Gb:------------------------|
Db:------------------------|
Ab:-7-5-5-5--7--2-2-2-2-2--|
Eb:-5-3-3-3--5--0-0-0-0-0--|

eb:-----------------------------------------|
Bb:-----------------------------------------|
Gb:-----------------------------------------|
Db:-----------------------------------------|
Ab:-7-7-7-7-7-7-7-7-7-7-7-7-7--8-8--9-9-5-5-|
Eb:-5-5-5-5-5-5-5-5-5-5-5-5-5--6-6--7-7-3-3-|

eb:------------------------|
Bb:------------------------|
Gb:------------------------|
Db:------------------------|
Ab:-7-5-5-5--7--2-2-2-2-2--|
Eb:-5-3-3-3--5--0-0-0-0-0--|

eb:---------------------------------|
Bb:---------------------------------|
Gb:---------------------------------|
Db:---------------------------------|
Ab:-5-5-5--8-8--4-4--5--5-5-5-5-5-5-|
Eb:-3-3-3--6-6--2-2--3--3-3-3-3-3-3-|

eb:------------------------|
Bb:------------------------|
Gb:------------------------|
Db:------------------------|
Ab:-7-5-5-5--7--2-2-2-2-2--|
Eb:-5-3-3-3--5--0-0-0-0-0--|

:------------------|
:------------------|
:------------------|
:-3-3-3-3-3-3-3-3--|
:-1-1-1-1-1-1-1-1--|
:------------------|

eb:------------------------|
Bb:------------------------|
Gb:------------------------|
Db:------------------------|
Ab:-7-5-5-5--7--2-2-2-2-2--|
Eb:-5-3-3-3--5--0-0-0-0-0--|


eb:-----------------------------------------|
Bb:-----------------------------------------|
Gb:-----------------------------------------|
Db:-----------------------------------------|
Ab:-7-7-7-7-7-7-7-7-7-7-7-7-7--8-8--9-9-5-5-|
Eb:-5-5-5-5-5-5-5-5-5-5-5-5-5--6-6--7-7-3-3-|

eb:------------------------|
Bb:------------------------|
Gb:------------------------|
Db:------------------------|
Ab:-7-5-5-5--7--2-2-2-2-2--|
Eb:-5-3-3-3--5--0-0-0-0-0--|

eb:---------------------------------|
Bb:---------------------------------|
Gb:---------------------------------|
Db:---------------------------------|
Ab:-5-5-5--8-8--4-4--5--5-5-5-5-5-5-|
Eb:-3-3-3--6-6--2-2--3--3-3-3-3-3-3-|

solo
:------------12----------------------------------------------------------------------------|
:-15bf~~~~~-----12------12---------------------------12------------------------------------|
:-------------------14b----14p12----12h14--14-12-14b----14-12-14b---3b(1/4)-3b(1/4)-3b-3-2-|
:--------------------------------14--------------------------------------------------------|
:------------------------------------------------------------------------------------------|
:------------------------------------------------------------------------------------------|

             repeat
eb:------|--------------|----------------------|
Bb:------|-14b-14-------|----------------------|
Gb:-2/14-|-14b-14p12----|-14b-14b-14b~~~-------|
Db:------|-----------14-|----------------------|
Ab:------|--------------|----------------------|
Eb:------|--------------|----------------------|

eb:-----------------------------------------|
Bb:-----------------------------------------|
Gb:-----------------------------------------|
Db:-----------------------------------------|
Ab:-7-7-7-7-7-7-7-7-7-7-7-7-7--8-8--9-9-5-5-|
Eb:-5-5-5-5-5-5-5-5-5-5-5-5-5--6-6--7-7-3-3-|

eb:------------------------|
Bb:------------------------|
Gb:------------------------|
Db:------------------------|
Ab:-7-5-5-5--7--2-2-2-2-2--|
Eb:-5-3-3-3--5--0-0-0-0-0--|

eb:---------------------------------|
Bb:---------------------------------|
Gb:---------------------------------|
Db:---------------------------------|
Ab:-5-5-5--8-8--4-4--5--5-5-5-5-5-5-|
Eb:-3-3-3--6-6--2-2--3--3-3-3-3-3-3-|

eb:------------------------|
Bb:------------------------|
Gb:------------------------|
Db:------------------------|
Ab:-7-5-5-5--7--2-2-2-2-2--|
Eb:-5-3-3-3--5--0-0-0-0-0--|
            
Submit corrections

comments powered by Disqus
↑ Back to top | Zeke Tabs for Mystery Train. Lyrics for acoustic guitar and electric guitar. Tablatures and chords are parodies/interpretations of the original songs. You may use it for private study, scholarship, research or language learning purposes only