>
 >
Mountain Man

Mountain Man Guitar Tabs

Zeke - Mountain Man chords, tabs, tablatures, lyrics

Guitar lessons | Add/correct | Request | Top 50 tabs Artists:  A B C D E F G H I J K L M N O P Q R S T U V W X Y Z 0-9

Mountain Man Guitar Tabs – Zeke

CD, Sheet music, Poster

Do you like Mountain Man? Share with your friends now
Tabs
mountain man


zeke






e:-----------------------------------|
B:-----------------------------------|
G:-----------------------------------|
D:-----------------------------------|
A:-11-11--9--9-9--7-7-7---4-4-4--6-6-|
E:-9--9---7--7-7--5-5-5---2-2-2--4-4-|

e:------------------------------------|
B:------------------------------------|
G:-6-6---------3-3---6-6-------6-8\6--|
D:-6-6-------4-4-4---6-6-------6-8\6--|
A:-4-4-------4-4-4-0-4-4--0h4--4-6\4--|
E:------0h2--2-2-2--------------------|

e:----------------------------------|
B:----------------------------------|
G:-6-6---------3-3---6-6-------6-4--|
D:-6-6-------4-4-4---6-6-------6-4--|
A:-4-4-------4-4-4-0-4-4--0h4--4-2--|
E:------0h2--2-2-2------------------|


verse                        
e:-----------------------------|
B:-----------------------------|
G:-6-6---------6-6--6-6-6--8\6-|
D:-6-6---4-4---6-6--6-6-6--8\6-|
A:-4-4---4-4-0-4-4--4-4-4--6\4-|
E:-----0-2-2-------------------|

e:---------------------------|
B:---------------------------|
G:-6-6---------6-6--6-6-6--4-|
D:-6-6---4-4---6-6--6-6-6--4-|
A:-4-4---4-4-0-4-4--4-4-4--2-|
E:-----0-2-2-----------------|

e:-----------------------------|
B:-----------------------------|
G:-6-6---------6-6--6-6-6--8\6-|
D:-6-6---4-4---6-6--6-6-6--8\6-|
A:-4-4---4-4-0-4-4--4-4-4--6\4-|
E:-----0-2-2-------------------|

e:-------------------------------|
B:-------------------------------|
G:-6-6---------6-6--6-6-6--6-6-6-|
D:-6-6---4-4---6-6--6-6-6--6-6-6-|
A:-4-4---4-4-0-4-4--4-4-4--4-4-4-|
E:-----0-2-2---------------------|


im the mountain man oh lord
:----------------------------|
:----------------------------|
:----------------------------|
:-7-7-7-7-7-7-7--4-4-4-4-4-4-|
:-7-7-7-7-7-7-7--4-4-4-4-4-4-|
:-5-5-5-5-5-5-5--2-2-2-2-2-2-|

mountain man
e:-------------|
B:-------------|
G:-6-6-6-------|
D:-6-6-6-------|
A:-4-4-4--2--4-|
E:--------0--2-|

verse                        
e:-----------------------------|
B:-----------------------------|
G:-6-6---------6-6--6-6-6--8\6-|
D:-6-6---4-4---6-6--6-6-6--8\6-|
A:-4-4---4-4-0-4-4--4-4-4--6\4-|
E:-----0-2-2-------------------|

e:---------------------------|
B:---------------------------|
G:-6-6---------6-6--6-6-6--4-|
D:-6-6---4-4---6-6--6-6-6--4-|
A:-4-4---4-4-0-4-4--4-4-4--2-|
E:-----0-2-2-----------------|

e:-----------------------------|
B:-----------------------------|
G:-6-6---------6-6--6-6-6--8\6-|
D:-6-6---4-4---6-6--6-6-6--8\6-|
A:-4-4---4-4-0-4-4--4-4-4--6\4-|
E:-----0-2-2-------------------|

e:-------------------------------|
B:-------------------------------|
G:-6-6---------6-6--6-6-6--6-6-6-|
D:-6-6---4-4---6-6--6-6-6--6-6-6-|
A:-4-4---4-4-0-4-4--4-4-4--4-4-4-|
E:-----0-2-2---------------------|


im the mountain man oh lord
:----------------------------|
:----------------------------|
:----------------------------|
:-7-7-7-7-7-7-7--4-4-4-4-4-4-|
:-7-7-7-7-7-7-7--4-4-4-4-4-4-|
:-5-5-5-5-5-5-5--2-2-2-2-2-2-|

mountain man
e:-------------|
B:-------------|
G:-6-6-6-------|
D:-6-6-6-------|
A:-4-4-4--2--4-|
E:--------0--2-|

e:----------------------------------------------------|
B:---------------9h12p9h12p9h12p9h12p9----------------|
G:--------------------------------------12-9-11-9-11b-|
D:-6--4--6--9-----------------------------------------|
A:-4--2--4--7-----------------------------------------|
E:----------------------------------------------------|

e:---------------------------------------|
B:---------------------------------------|
G:--------------5h7p5h7p5h7p5h7p5h7p5-7b-|
D:-6--4--6--9-9--------------------------|
A:-4--2--4--7-7--------------------------|
E:---------------------------------------|

standing in the crossroads
:------------------------------------------------|
:----------------------------------17b--18b--20b-|
:----------------------------------19b--20b--22b-|
:-2-2-2-2-2-2-2-2-2-2-2-2-2-2-2-2----------------|
:-0-0-0-0-0-0-0-0-0-0-0-0-0-0-0-0----------------|
:------------------------------------------------|

solo
e:----------------------------------------------------------------------------------------|
B:--------12-10-12--------12-10--13b-10h13p10----10---------------------------------------|
G:-12bp10-12-10-12-12bp10-12-10---------------13----13p10-12-10----10-12-10-----10-12-10b-|
D:--------------------------------------------------------------12-----------12-----------|
A:----------------------------------------------------------------------------------------|
E:----------------------------------------------------------------------------------------|

verse                        
e:-----------------------------|
B:-----------------------------|
G:-6-6---------6-6--6-6-6--8\6-|
D:-6-6---4-4---6-6--6-6-6--8\6-|
A:-4-4---4-4-0-4-4--4-4-4--6\4-|
E:-----0-2-2-------------------|

e:---------------------------|
B:---------------------------|
G:-6-6---------6-6--6-6-6--4-|
D:-6-6---4-4---6-6--6-6-6--4-|
A:-4-4---4-4-0-4-4--4-4-4--2-|
E:-----0-2-2-----------------|

e:-----------------------------|
B:-----------------------------|
G:-6-6---------6-6--6-6-6--8\6-|
D:-6-6---4-4---6-6--6-6-6--8\6-|
A:-4-4---4-4-0-4-4--4-4-4--6\4-|
E:-----0-2-2-------------------|

e:-------------------------------|
B:-------------------------------|
G:-6-6---------6-6--6-6-6--6-6-6-|
D:-6-6---4-4---6-6--6-6-6--6-6-6-|
A:-4-4---4-4-0-4-4--4-4-4--4-4-4-|
E:-----0-2-2---------------------|


im the mountain man oh lord
:----------------------------|
:----------------------------|
:----------------------------|
:-7-7-7-7-7-7-7--4-4-4-4-4-4-|
:-7-7-7-7-7-7-7--4-4-4-4-4-4-|
:-5-5-5-5-5-5-5--2-2-2-2-2-2-|

mountain man
e:-------------|
B:-------------|
G:-6-6-6-------|
D:-6-6-6-------|
A:-4-4-4--2--4-|
E:--------0--2-|


e:--------------|
B:--------------|
G:--------------|
D:-6--4--6--9---|
A:-4--2--4--7---|
E:--------------|

e:--------------|
B:--------------|
G:--------------|
D:-6--4--6--9-9-|
A:-4--2--4--7-7-|
E:--------------|

e:------------------|
B:------------------|
G:------------------|
D:--6--4------------|
A:--4--2---6-5-4----|
E:---------4-3-2--0-|

:-----------------------------------------|
:-----------------------------------------|
:--6--------------------------------------|
:--6--------------------------------------|
:--4--------------------------------------|
:--0--------------------------------------|





Comments


Popular Zeke tabs & chords
Fucked Up City 1 Tabs
I Believe In Miracles 1 Tabs
Let's Get Drugs Tabs
Lets Go Tabs
Love Gun Tabs
Overkill Tabs
Punk Rock Records Tabs
Runnin' Shine Tabs
Slut Tabs
T-500 Tabs


Song lyrics



↑ Back to top | Tablatures and chords are parodies/interpretations of the original songs. You may use it for private study, scholarship, research or language learning purposes only
© 2014 AZChords.com Contact us | Privacy policy | DMCA | Add/correct tabs | Request tabs | Top 50 tabs