» » »

Zeke, Mert Tabs (ver.1)

Artists:  A B C D E F G H I J K L M N O P Q R S T U V W X Y Z # 

Mert Tabs (ver.1)

Zeke Tabs
 Rating:
4/5 (4 votes)
Mert lessons Tabs too difficult? Try these video lessons and learn fast
                

tune 3 steps down
       
              
Eb|---------|
Bb|---------|
F#|---------|
C#|-7-------|
G#|-5-6-7-8-|
C#|---4-5-6-|


Eb|------------------|
Bb|------------------|
F#|------------------|
C#|-7-x--5-7-5-2-7-7-|
G#|-5-x--3-5-3-0-5-5-|
C#|------------------|

Eb|------------------|
Bb|------------------|
F#|------------------|
C#|-7-x--5-7-5-2-7-7-|
G#|-5-x--3-5-3-0-5-5-|
C#|------------------|

Eb|----------------------|
Bb|----------------------|
F#|----------------------|
C#|-7-x--5-7-5-2-7-------|
G#|-5-x--3-5-3-0-5-8-7-5-|
C#|----------------6-5-3-|

Eb|-----------------------------|
Bb|-----------------------------|
F#|-----------------------------|
C#|-----------------7-7-x-7-----|
G#|-2--x-2-5-7-5-7--5-5-x-5-8-7-|
C#|-0--x-0-3-5-3-5----------6-5-|

Eb|-------------------------|
Bb|-------------------------|
F#|-------------------------|
C#|-----------------7-------|
G#|-2--x-2-5-7-5-7--5-6-7-8-|
C#|-0--x-0-3-5-3-5----4-5-6-|

Eb|--------------------|
Bb|---------------15b--|
F#|---------------17b--|
C#|--------------------|
G#|-9-9--9/12/9--------|
C#|-7-7--7/10/7--------|

Eb|---------------15b--|
Bb|---------------18b--|
F#|--------------------|
C#|--------------------|
G#|-9-9--9/12/9--------|
C#|-7-7--7/10/7--------|

Eb|--------------------|
Bb|---------------15b--|
F#|---------------17b--|
C#|--------------------|
G#|-9-9--9/12/9--------|
C#|-7-7--7/10/7--------|

Eb|--------------------|
Bb|---------------15b--|
F#|---------------17b--|
C#|--------------------|
G#|-9-9--9/12/9--------|
C#|-7-7--7/10/7--------|

Eb|------------------|
Bb|------------------|
F#|------------------|
C#|-7-x--5-7-5-2-7-7-|
G#|-5-x--3-5-3-0-5-5-|
C#|------------------|

Eb|------------------|
Bb|------------------|
F#|------------------|
C#|-7-x--5-7-5-2-7-7-|
G#|-5-x--3-5-3-0-5-5-|
C#|------------------|

Eb|----------------------|
Bb|----------------------|
F#|----------------------|
C#|-7-x--5-7-5-2-7-------|
G#|-5-x--3-5-3-0-5-8-7-5-|
C#|----------------6-5-3-|

Eb|-----------------------------|
Bb|-----------------------------|
F#|-----------------------------|
C#|-----------------7-7-x-7-----|
G#|-2--x-2-5-7-5-7--5-5-x-5-8-7-|
C#|-0--x-0-3-5-3-5----------6-5-|

Eb|-------------------------|
Bb|-------------------------|
F#|-------------------------|
C#|-----------------7-------|
G#|-2--x-2-5-7-5-7--5-6-7-8-|
C#|-0--x-0-3-5-3-5----4-5-6-|

Eb|--------------------|
Bb|---------------15b--|
F#|---------------17b--|
C#|--------------------|
G#|-9-9--9/12/9--------|
C#|-7-7--7/10/7--------|

Eb|---------------15b--|
Bb|---------------18b--|
F#|--------------------|
C#|--------------------|
G#|-9-9--9/12/9--------|
C#|-7-7--7/10/7--------|

Eb|--------------------|
Bb|---------------15b--|
F#|---------------17b--|
C#|--------------------|
G#|-9-9--9/12/9--------|
C#|-7-7--7/10/7--------|

Eb|--------------------|
Bb|---------------15b--|
F#|---------------17b--|
C#|--------------------|
G#|-9-9--9/12/9--------|
C#|-7-7--7/10/7--------|

Eb|------------------|
Bb|------------------|
F#|------------------|
C#|-7-x--5-7-5-2-7-7-|
G#|-5-x--3-5-3-0-5-5-|
C#|------------------|

Eb|------------------|
Bb|------------------|
F#|------------------|
C#|-7-x--5-7-5-2-7-7-|
G#|-5-x--3-5-3-0-5-5-|
C#|------------------|

Eb|----------------------|
Bb|----------------------|
F#|----------------------|
C#|-7-x--5-7-5-2-7-------|
G#|-5-x--3-5-3-0-5-8-7-5-|
C#|----------------6-5-3-|

Eb|-----------------------------|
Bb|-----------------------------|
F#|-----------------------------|
C#|-----------------7-7-x-7-----|
G#|-2--x-2-5-7-5-7--5-5-x-5-8-7-|
C#|-0--x-0-3-5-3-5----------6-5-|

Eb|-------------------------|
Bb|-------------------------|
F#|-------------------------|
C#|-----------------7-------|
G#|-2--x-2-5-7-5-7--5-6-7-8-|
C#|-0--x-0-3-5-3-5----4-5-6-|

Eb|-----------------------------|
Bb|-----------------------------|
F#|-----------------------------|
C#|-----------------7-7-x-7-----|
G#|-2--x-2-5-7-5-7--5-5-x-5-8-7-|
C#|-0--x-0-3-5-3-5----------6-5-|

Eb|-------------------------|
Bb|-------------------------|
F#|-------------------------|
C#|-----------------7-------|
G#|-2--x-2-5-7-5-7--5-6-7-8-|
C#|-0--x-0-3-5-3-5----4-5-6-|


Eb|----------------|
Bb|-----------13b--|
F#|-----------15b--|
C#|-4--4-4---------|
G#|-2--2-2-0-------|
C#|----------------|

Eb|-----------12b--|
Bb|-----------15b--|
F#|----------------|
C#|-4--4-4---------|
G#|-2--2-2-0-------|
C#|----------------|

Eb|------------------|
Bb|------------------|
F#|------------------|
C#|-7-x--5-7-5-2-7-7-|
G#|-5-x--3-5-3-0-5-5-|
C#|------------------|

Eb|------------------|
Bb|------------------|
F#|------------------|
C#|-7-x--5-7-5-2-7-7-|
G#|-5-x--3-5-3-0-5-5-|
C#|------------------|

Eb|---------------|
Bb|---------------|
F#|---------------|
C#|-7-x--5-7-5-2--|
G#|-5-x--3-5-3-0--|
C#|---------------|
            
Submit corrections

comments powered by Disqus
↑ Back to top | Zeke Tabs for Mert. Lyrics for acoustic guitar and electric guitar. Tablatures and chords are parodies/interpretations of the original songs. You may use it for private study, scholarship, research or language learning purposes only