» » »

Zeke, Maybe Someday Tabs (ver.1)

Artists:  A B C D E F G H I J K L M N O P Q R S T U V W X Y Z # 

Maybe Someday Tabs (ver.1)

Zeke Tabs
Rating:
0/5 (0 votes)
Maybe Someday lessons Tabs too difficult? Try these video lessons and learn fast
                maybe someday


zeke






eb:------------------|
Bb:------------------|
Gb:------------------|
Db:------------------|
Ab:-5-5-5-5--7-7-7-7-|
Eb:-3-3-3-3--5-5-5-5-|

eb:------------------|
Bb:------------------|
Gb:------------------|
Db:------------------|
Ab:-5-5-5-5--7-7-7-7-|
Eb:-3-3-3-3--5-5-5-5-|

eb:----------------|
Bb:----------------|
Gb:----------------|
Db:-7-7-7--4-4-4-4-|
Ab:-5-5-5--2-2-2-2-|
Eb:----------------|

eb:------------------|
Bb:------------------|
Gb:------------------|
Db:------------------|
Ab:-5-5-5-5--7-7-7-7-|
Eb:-3-3-3-3--5-5-5-5-|

eb:------------------|
Bb:------------------|
Gb:------------------|
Db:------------------|
Ab:-5-5-5-5--7-7-7-7-|
Eb:-3-3-3-3--5-5-5-5-|

eb:----------------|
Bb:----------------|
Gb:----------------|
Db:-7-7-7--4-4-4-4-|
Ab:-5-5-5--2-2-2-2-|
Eb:----------------|

eb:------------------|
Bb:------------------|
Gb:------------------|
Db:------------------|
Ab:-5-5-5-5--7-7-7-7-|
Eb:-3-3-3-3--5-5-5-5-|

eb:----------------|
Bb:----------------|
Gb:----------------|
Db:----------------|
Ab:-12-12-12-12-12-|
Eb:-10-10-10-10-10-|

    4 times
eb:------------------|
Bb:------------------|
Gb:------------------|
Db:------------------|
Ab:-5-5-5-5--7-7-7-7-|
Eb:-3-3-3-3--5-5-5-5-|

eb:----------------|
Bb:----------------|
Gb:----------------|
Db:-7-7-7--4-4-4-4-|
Ab:-5-5-5--2-2-2-2-|
Eb:----------------|

eb:------------------|
Bb:------------------|
Gb:------------------|
Db:------------------|
Ab:-5-5-5-5--7-7-7-7-|
Eb:-3-3-3-3--5-5-5-5-|

eb:----------------|
Bb:----------------|
Gb:----------------|
Db:----------------|
Ab:-12-12-12-12-12-|
Eb:-10-10-10-10-10-|

    4 times
eb:------------------|
Bb:------------------|
Gb:------------------|
Db:------------------|
Ab:-5-5-5-5--7-7-7-7-|
Eb:-3-3-3-3--5-5-5-5-|

:----------------|
:----------------|
:----------------|
:----------------|
:--5-------7-----|
:--3-------5-----|

    3 times
eb:------------------|
Bb:------------------|
Gb:------------------|
Db:------------------|
Ab:-5-5-5-5--7-7-7-7-|
Eb:-3-3-3-3--5-5-5-5-|

eb:----------------|
Bb:----------------|
Gb:----------------|
Db:-7-7-7--4-4-4-4-|
Ab:-5-5-5--2-2-2-2-|
Eb:----------------|

eb:------------------|
Bb:------------------|
Gb:------------------|
Db:------------------|
Ab:-5-5-5-5--7-7-7-7-|
Eb:-3-3-3-3--5-5-5-5-|

eb:----------------|
Bb:----------------|
Gb:----------------|
Db:----------------|
Ab:-12-12-12-12-12-|
Eb:-10-10-10-10-10-|

eb:----------------|
Bb:----------------|
Gb:----------------|
Db:----------------|
Ab:-12-12-12-12-12-|
Eb:-10-10-10-10-10-|
            
Submit corrections

comments powered by Disqus
↑ Back to top | Zeke Tabs for Maybe Someday. Lyrics for acoustic guitar and electric guitar. Tablatures and chords are parodies/interpretations of the original songs. You may use it for private study, scholarship, research or language learning purposes only