>
 >
Malibu

Malibu Guitar Tabs

Zeke - Malibu chords, tabs, tablatures, lyrics

Guitar lessons | Add/correct | Request | Top 50 tabs Artists:  A B C D E F G H I J K L M N O P Q R S T U V W X Y Z 0-9

Malibu Guitar Tabs – Zeke

CD, Sheet music, Poster

Do you like Malibu? Share with your friends now
Tabs


tune 3 steps down
                   
Eb|-----------------------|
Bb|-----------------------|
F#|-----------------------|
C#|-----------------------|
G#|-2---------------------|
C#|-0--3--6-5--3-5--5-3-5-|

Eb|-----------|
Bb|-----------|
F#|-----------|
C#|-----------|
G#|-2---------|
C#|-0--3--6-5-|


Eb|-----------------------|
Bb|-----------------------|
F#|-----------------------|
C#|-----------------------|
G#|-2--5--8-7--5-7--7-5-7-|
C#|-0--3--6-5--3-5--5-3-5-|


Eb|----------------------|
Bb|----------------------|
F#|----------------------|
C#|----------------------|
G#|-2--5--8-7----7-7-----|
C#|-0--3--6-5--3-5-5-12/-|

Eb|-----------------------|
Bb|-----------------------|
F#|-----------------------|
C#|-----------------------|
G#|-2--5--8-7--5-7--7-5-7-|
C#|-0--3--6-5--3-5--5-3-5-|


Eb|----------------------|
Bb|----------------------|
F#|----------------------|
C#|----------------------|
G#|-2--5--8-7----7-7-----|
C#|-0--3--6-5--3-5-5-12/-|

verse
Eb|----------------------|
Bb|----------------------|
F#|-9-9-9-9-9------------|
C#|-9-9-9-9-9--7-7-7-7-7-|
G#|-7-7-7-7-7--7-7-7-7-7-|
C#|------------5-5-5-5-5-|

Eb|---------------------------------|
Bb|---------------------------------|
F#|-9-9-9-9-9-----------------------|
C#|-9-9-9-9-9--7-7-7-7-7-------5----|
G#|-7-7-7-7-7--7-7-7-7-7-------5----|
C#|------------5-5-5-5-5-------3----|

Eb|----------------------|
Bb|----------------------|
F#|-9-9-9-9-9------------|
C#|-9-9-9-9-9--7-7-7-7-7-|
G#|-7-7-7-7-7--7-7-7-7-7-|
C#|------------5-5-5-5-5-|

Eb|---------------------------------|
Bb|---------------------------------|
F#|-9-9-9-9-9-----------------------|
C#|-9-9-9-9-9--7-7-7-7-7-------5----|
G#|-7-7-7-7-7--7-7-7-7-7-------5----|
C#|------------5-5-5-5-5-------3----|

Eb|-----------------------|
Bb|-----------------------|
F#|-----------------------|
C#|-----------------------|
G#|-2--5--8-7--5-7--7-5-7-|
C#|-0--3--6-5--3-5--5-3-5-|


Eb|----------------------|
Bb|----------------------|
F#|----------------------|
C#|----------------------|
G#|-2--5--8-7----7-7-----|
C#|-0--3--6-5--3-5-5-12/-|

Eb|-----------------------|
Bb|-----------------------|
F#|-----------------------|
C#|-----------------------|
G#|-2--5--8-7--5-7--7-5-7-|
C#|-0--3--6-5--3-5--5-3-5-|


Eb|----------------------|
Bb|----------------------|
F#|----------------------|
C#|----------------------|
G#|-2--5--8-7----7-7-----|
C#|-0--3--6-5--3-5-5-12/-|

Eb|----------------------|
Bb|----------------------|
F#|-9-9-9-9-9------------|
C#|-9-9-9-9-9--7-7-7-7-7-|
G#|-7-7-7-7-7--7-7-7-7-7-|
C#|------------5-5-5-5-5-|

Eb|---------------------------------|
Bb|---------------------------------|
F#|-9-9-9-9-9-----------------------|
C#|-9-9-9-9-9--7-7-7-7-7-------5----|
G#|-7-7-7-7-7--7-7-7-7-7-------5----|
C#|------------5-5-5-5-5-------3----|

Eb|----------------------|
Bb|----------------------|
F#|-9-9-9-9-9------------|
C#|-9-9-9-9-9--7-7-7-7-7-|
G#|-7-7-7-7-7--7-7-7-7-7-|
C#|------------5-5-5-5-5-|

Eb|---------------------------------|
Bb|---------------------------------|
F#|-9-9-9-9-9-----------------------|
C#|-9-9-9-9-9--7-7-7-7-7-------5----|
G#|-7-7-7-7-7--7-7-7-7-7-------5----|
C#|------------5-5-5-5-5-------3----|

Eb|----------------|
Bb|----------------|
F#|----------------|
C#|-8--7-5-7--5--2-|
G#|-8--7-5-7--5--2-|
C#|-6--5-3-5--3--0-|

Eb|----------------|
Bb|----------------|
F#|----------------|
C#|-8--7-5-7--5--2-|
G#|-8--7-5-7--5--2-|
C#|-6--5-3-5--3--0-|

Eb|----------------|
Bb|----------------|
F#|----------------|
C#|-8--7-5-7--5--2-|
G#|-8--7-5-7--5--2-|
C#|-6--5-3-5--3--0-|

Eb|----------------|
Bb|----------------|
F#|----------------|
C#|-8--7-5-7--5--2-|
G#|-8--7-5-7--5--2-|
C#|-6--5-3-5--3--0-|

Eb|---------------------------------------------------|
Bb|---------------------------------------------------|
F#|-4-4-4-4-4-4-4-4-4-4-4-4-4-4-4-4-4-4-4-4-4-4-4-4-4-|
C#|-4-4-4-4-4-4-4-4-4-4-4-4-4-4-4-4-4-4-4-4-4-4-4-4-4-|
G#|-2-2-2-2-2-2-2-2-2-2-2-2-2-2-2-2-2-2-2-2-2-2-2-2-2-|
C#|---------------------------------------------------|

Eb|-----------------------|
Bb|-----------------------|
F#|-----------------------|
C#|-----------------------|
G#|-2--5--8-7--5-7--7-5-7-|
C#|-0--3--6-5--3-5--5-3-5-|


Eb|------------|
Bb|------------|
F#|------------|
C#|------------|
G#|-2--5--8-7--|
C#|-0--3--6-5--|





Comments


Popular Zeke tabs & chords
Telephat Boy Bass Tabs
Twisted Bass Tabs
Death Alley Tabs
Donde Esta Tabs
Drunk Tabs
Fucked Up City 1 Tabs
King Of Lynnwood Tabs
Porked Tabs
West Seattle Acid Party Tabs
Zeke You Tabs


Song lyrics



↑ Back to top | Tablatures and chords are parodies/interpretations of the original songs. You may use it for private study, scholarship, research or language learning purposes only
© 2014 AZChords.com Contact us | Privacy policy | DMCA | Add/correct tabs | Request tabs | Top 50 tabs