» » »

Zeke, Mainline Tabs (ver.1)

Artists:  A B C D E F G H I J K L M N O P Q R S T U V W X Y Z # 

Mainline Tabs (ver.1)

Zeke Tabs
 Rating:
4/5 (4 votes)
Mainline lessons Tabs too difficult? Try these video lessons and learn fast
                mainline


zeke






running on a mainline...the ***ing mainline
e:---------------|
B:---------------|
G:---------------|
D:---------------|
A:-2-2-2-2--5--7-|
E:-0-0-0-0--3--5-|


e:---------------------|
B:---------------------|
G:---------------------|
D:---------------------|
A:-2-2-2--9-9-8-8-7-7--|
E:-0-0-0--7-7-6-6-5-5--|


running on a mainline...the ***ing mainline
e:---------------|
B:---------------|
G:---------------|
D:---------------|
A:-2-2-2-2--5--7-|
E:-0-0-0-0--3--5-|


e:---------------------|
B:---------------------|
G:---------------------|
D:---------------------|
A:-2-2-2--9-9-8-8-7-7--|
E:-0-0-0--7-7-6-6-5-5--|


e:---------------------------------------------------|
B:---------------------------------------------------|
G:---------------------------------------------------|
D:---------------------------------------------------|
A:-7-7-7-----------7-7-7-7-----------7-7-7-----------|
E:-0-0-0-0-0-0-0-0-0-0-0-0-0-0-0-0-0-0-0-0-0-0-0-0-0-|


:------------------------------------------------------------|
:------------------------------------------------------------|
:------------------------------------------------------------|
:------------------------------------------------------------|
:-7--5--2------------------7-7-7-7-----------7-7-7-----------|
:-5--3--0--0-0-0-0-0-0-0-0-0-0-0-0-0-0-0-0-0-0-0-0-0-0-0-0-0-|

running on a mainline...the ***ing mainline
e:---------------|
B:---------------|
G:---------------|
D:---------------|
A:-2-2-2-2--5--7-|
E:-0-0-0-0--3--5-|


e:---------------------|
B:---------------------|
G:---------------------|
D:---------------------|
A:-2-2-2--9-9-8-8-7-7--|
E:-0-0-0--7-7-6-6-5-5--|


running on a mainline...the ***ing mainline
e:---------------|
B:---------------|
G:---------------|
D:---------------|
A:-2-2-2-2--5--7-|
E:-0-0-0-0--3--5-|


e:---------------------|
B:---------------------|
G:---------------------|
D:---------------------|
A:-2-2-2--9-9-8-8-7-7--|
E:-0-0-0--7-7-6-6-5-5--|

solo
e:-15-15-15-15-15-15-15-15-15-15-15-15-15-15--------------------------------|
B:-15-15-15-15-15-15-15-15-15-15-15-15-15-15--15--15-15-15-15--15-----------|
G:--------------------------------------------14b----------14b-14-12--14-12-|
D:--------------------------------------------------------------------------|
A:--------------------------------------------------------------------------|
E:--------------------------------------------------------------------------|

e:-15-15-15-15-15-15-15-15-15-15-15-15-15-15--------------------------------|
B:-15-15-15-15-15-15-15-15-15-15-15-15-15-15--15--15-15-15-15--15-----------|
G:--------------------------------------------14b----------14b-14-12--14-12-|
D:--------------------------------------------------------------------------|
A:--------------------------------------------------------------------------|
E:--------------------------------------------------------------------------|


e:-------------------------------------|
B:-------------------------------------|
G:-------------------------------------|
D:-------------------------------------|
A:-5-5-5-5-5-7-7-7-7-7-2-2-2-2-2-2-2-2-|
E:-3-3-3-3-3-5-5-5-5-5-0-0-0-0-0-0-0-0-|


e:------------------------------|
B:------------------------------|
G:------------------------------|
D:----------------------------9-|
A:-5-5-5-5-5-7-7-7-7-7-2-2-2--7-|
E:-3-3-3-3-3-5-5-5-5-5-0-0-0--0-|

running on a mainline...the ***ing mainline
e:---------------|
B:---------------|
G:---------------|
D:---------------|
A:-2-2-2-2--5--7-|
E:-0-0-0-0--3--5-|


e:---------------------|
B:---------------------|
G:---------------------|
D:---------------------|
A:-2-2-2--9-9-8-8-7-7--|
E:-0-0-0--7-7-6-6-5-5--|


running on a mainline...the ***ing mainline
e:---------------|
B:---------------|
G:---------------|
D:---------------|
A:-2-2-2-2--5--7-|
E:-0-0-0-0--3--5-|


:-------------------|
:-------------------|
:-------------------|
:-------------------|
:-2-2--5---5-7-8--2-|
:-0-0--3-0-3-5-6--0-|
            
Submit corrections

comments powered by Disqus
↑ Back to top | Zeke Tabs for Mainline. Lyrics for acoustic guitar and electric guitar. Tablatures and chords are parodies/interpretations of the original songs. You may use it for private study, scholarship, research or language learning purposes only