» » »

Zeke, Love Gun Tabs (ver.1)

Artists:  A B C D E F G H I J K L M N O P Q R S T U V W X Y Z # 

Love Gun Tabs (ver.1)

Zeke Tabs
 Rating:
4/5 (4 votes)
Love Gun lessons Tabs too difficult? Try these video lessons and learn fast
1
                love gun


zeke






e:------------------------|
B:------------------------|
G:------------------------|
D:-7-7-7-7-7-7-7-7-10-10--|
A:-5-5-5-5-5-5-5-5-8--8---|
E:------------------------|

e:----------------------|
B:----------------------|
G:----------------------|
D:-2-2-2-2-2-2-2--5-5-5-|
A:-0-0-0-0-0-0-0--3-3-3-|
E:----------------------|

e:--------------------|
B:--------------------|
G:--------------------|
D:-2-2--5-5--7-7--5-5-|
A:-0-0--3-3--5-5--3-3-|
E:--------------------|

B:----------------------|
G:----------------------|
D:-2-2-2-2-2-2-2--5-5-5-|
A:-0-0-0-0-0-0-0--3-3-3-|
E:----------------------|

e:--------------------|
B:--------------------|
G:--------------------|
D:-2-2--5-5--7-7--5-5-|
A:-0-0--3-3--5-5--3-3-|
E:--------------------|

e:------------------------|
B:------------------------|
G:------------------------|
D:-7-7-7-7-7-7-7-7-10-10--|
A:-5-5-5-5-5-5-5-5-8--8---|
E:------------------------|

e:----------------------|
B:----------------------|
G:----------------------|
D:-2-2-2-2-2-2-2--5-5-5-|
A:-0-0-0-0-0-0-0--3-3-3-|
E:----------------------|

e:--------------------|
B:--------------------|
G:--------------------|
D:-2-2--5-5--7-7--5-5-|
A:-0-0--3-3--5-5--3-3-|
E:--------------------|

B:----------------------|
G:----------------------|
D:-2-2-2-2-2-2-2--5-5-5-|
A:-0-0-0-0-0-0-0--3-3-3-|
E:----------------------|

e:--------------------|
B:--------------------|
G:--------------------|
D:-2-2--5-5--7-7--5-5-|
A:-0-0--3-3--5-5--3-3-|
E:--------------------|

e:------------------------|
B:------------------------|
G:------------------------|
D:-7-7-7-7-7-7-7-7-10-10--|
A:-5-5-5-5-5-5-5-5-8--8---|
E:------------------------|


e:------------------------|
B:------------------------|
G:-7-7-7-7-7-7-7-7-10-10--|
D:-7-7-7-7-7-7-7-7-10-10--|
A:-5-5-5-5-5-5-5-5-8--8---|
E:------------------------|

solo
:------------------------------------------------------------------------------------15-17-|
:----------15----------15-----------15-18-17-15h17p15----------------------------18b-------|
:-17bf~~~~-----14--17b----17p14-17b-------------------18-15-17-15-----15-17-17b------------|
:------------------------------------------------------------------17----------------------|
:------------------------------------------------------------------------------------------|
:------------------------------------------------------------------------------------------|


e:-16-15h16p15------------------15-17-16-15h16p15--------------------17-16--15h16p15-|
B:-------------18p15-17p15--18b-------------------18-17-15-17p15--18-----------------|
G:-----------------------------------------------------------------------------------|
D:-----------------------------------------------------------------------------------|
A:-----------------------------------------------------------------------------------|
E:-----------------------------------------------------------------------------------|


sorry only 52 secs of the song
            
Submit corrections

comments powered by Disqus
↑ Back to top | Zeke Tabs for Love Gun. Lyrics for acoustic guitar and electric guitar. 1 Tablatures and chords are parodies/interpretations of the original songs. You may use it for private study, scholarship, research or language learning purposes only