>
 >
Liar

Liar Guitar Tabs

Zeke - Liar chords, tabs, tablatures, lyrics

Guitar lessons | Add/correct | Request | Top 50 tabs Artists:  A B C D E F G H I J K L M N O P Q R S T U V W X Y Z 0-9

Liar Guitar Tabs – Zeke

CD, Sheet music, Poster

Do you like Liar? Share with your friends now
Tabs
liar


zeke






e:---------------------------------|
B:---------------------------------|
G:---------------------------------|
D:---------------------------------|
A:-0-0-3-3-0-0-3-3-0-0-3-3-0-0-3-3-|
E:---------------------------------|

e:---------------------------------|
B:-2-------------------------------|
G:-2-------------------------------|
D:-2---5-5-----5-5-----5-5-----8-8-|
A:-0-0-3-3-0-0-3-3-0-0-3-3-0-0-6-6-|
E:---------------------------------|

e:---------------------------------|
B:---------------------------------|
G:---------------------------------|
D:-2---5-5-----5-5-----5-5-----8-8-|
A:-0-0-3-3-0-0-3-3-0-0-3-3-0-0-6-6-|
E:---------------------------------|

verse
              fdbk
e:---------------------------------|
B:---------------------------------|
G:---------------------------------|
D:-2---5-5-----5-5-----5-5-----8-8-|
A:-0-0-3-3-0-0-3-3-0-0-3-3-0-0-6-6-|
E:---------------------------------|

e:---------------------------------------|
B:---------------------------------------|
G:---------------------------------------|
D:-2---5-5-----5-5-----5-5-5-5-5-5-5-5-5-|
A:-0-0-3-3-0-0-3-3-0-0-3-3-3-3-3-3-3-3-3-|
E:---------------------------------------|

   liar
              fdbk
e:---------------------------------|
B:---------------------------------|
G:---------------------------------|
D:-2---5-5-----5-5-----5-5-----8-8-|
A:-0-0-3-3-0-0-3-3-0-0-3-3-0-0-6-6-|
E:---------------------------------|

verse
             fdbk
e:---------------------------------|
B:---------------------------------|
G:---------------------------------|
D:-2---5-5-----5-5-----5-5-----8-8-|
A:-0-0-3-3-0-0-3-3-0-0-3-3-0-0-6-6-|
E:---------------------------------|

e:---------------------------------------|
B:---------------------------------------|
G:---------------------------------------|
D:-2---5-5-----5-5-----5-5-5-5-5-5-5-5-5-|
A:-0-0-3-3-0-0-3-3-0-0-3-3-3-3-3-3-3-3-3-|
E:---------------------------------------|

   liar
              fdbk
e:---------------------------------|
B:---------------------------------|
G:---------------------------------|
D:-2---5-5-----5-5-----5-5-----8-8-|
A:-0-0-3-3-0-0-3-3-0-0-3-3-0-0-6-6-|
E:---------------------------------|

e:-------------------------------|
B:-------------------------------|
G:-------------------------------|
D:-7-7-7-7-7-7-7-7--5-5-5-5-5-5--|
A:-5-5-5-5-5-5-5-5--3-3-3-3-3-3--|
E:-------------------------------|

e:---------------------------------|
B:---------------------------------|
G:-----------7-7----7-8-7-------x/-|
D:-7-7-10-10-----10-------10-7--x/-|
A:------------------------------x/-|
E:---------------------------------|

e:-------------------------------|
B:-------------------------------|
G:-------------------------------|
D:-7-7-7-7-7-7-7-7--3-3-3-3-3-3--|
A:-5-5-5-5-5-5-5-5--1-1-1-1-1-1--|
E:-------------------------------|

e:--------------------------------|
B:--------------------------------|
G:--------------------------------|
D:-2-2-5-5-2-2-5-5-2--5-5-5-5-5-5-|
A:-0-0-3-3-0-0-3-3-0--3-3-3-3-3-3-|
E:--------------------------------|

verse
              fdbk
e:-----------------------------------|
B:-----------------------------------|
G:-----------------------------------|
D:-2---5-5-----5-5-----5-5-----8-8-5-|
A:-0-0-3-3-0-0-3-3-0-0-3-3-0-0-6-6-3-|
E:-----------------------------------|


              fdbk
e:-----------------------------------|
B:-----------------------------------|
G:-----------------------------------|
D:-2---5-5-----5-5-----5-5-----3-3-3-|
A:-0-0-3-3-0-0-3-3-0-0-3-3-0-0-1-1-1-|
E:-----------------------------------|

e:--------------------------------|
B:--------------------------------|
G:--------------------------------|
D:-2-2-5-5-2-2-5-5-2--5-5-5-5-5-5-|
A:-0-0-3-3-0-0-3-3-0--3-3-3-3-3-3-|
E:--------------------------------|


              fdbk
e:-----------------------------------|
B:-----------------------------------|
G:-----------------------------------|
D:-2---5-5-----5-5-----5-5-----8-8-5-|
A:-0-0-3-3-0-0-3-3-0-0-3-3-0-0-6-6-3-|
E:-----------------------------------|


              fdbk
e:---------------------------------------|
B:---------------------------------------|
G:---------------------------------------|
D:-2---5-5-----5-5-----5-5-----3-3-3-3-3-|
A:-0-0-3-3-0-0-3-3-0-0-3-3-0-0-1-1-1-1-1-|
E:---------------------------------------|





Comments


Popular Zeke tabs & chords
Twisted 1 Bass Tabs
Aces High Tabs
Arkansas Man Tabs
Chiva Tabs
Drunk Tabs
Fallen Tabs
Galaxy 500 Tabs
Go Tabs
Ramirez Tabs
Raped Tabs


Song lyrics



↑ Back to top | Tablatures and chords are parodies/interpretations of the original songs. You may use it for private study, scholarship, research or language learning purposes only
© 2014 AZChords.com Contact us | Privacy policy | DMCA | Add/correct tabs | Request tabs | Top 50 tabs