» » »

Zeke, Lets Go Tabs (ver.1)

Artists:  A B C D E F G H I J K L M N O P Q R S T U V W X Y Z # 

Lets Go Tabs (ver.1)

Zeke Tabs
 Rating:
4/5 (4 votes)
Lets Go lessons Tabs too difficult? Try these video lessons and learn fast
1
                let's go


zeke






eb:-----------------------------------------------|
Bb:-----------------------------------------------|
Gb:-----------------------------------------------|
Db:-9-9-9-9-9-9-9-9-9-9-9-9-9-9-9-9-9-9-9-9-9-9-9-|
Ab:-7-7-7-7-7-7-7-7-7-7-7-7-7-7-7-7-7-7-7-7-7-7-7-|
Eb:-----------------------------------------------|

verse
eb:--------------------------------|
Bb:--------------------------------|
Gb:--------------------7/8-7---5-7-|
Db:-7-7-7-7-7-7-7-7-7--7/8-7---5-7-|
Ab:-7-7-7-7-7-7-7-7-7--5/6-5-0-3-5-|
Eb:-5-5-5-5-5-5-5-5-5--------------|

eb:----------------------------------|
Bb:----------------------------------|
Gb:--------------------7/8-7---7-7-7-|
Db:-7-7-7-7-7-7-7-7-7--7/8-7---7-7-7-|
Ab:-7-7-7-7-7-7-7-7-7--5/6-5-0-5-5-5-|
Eb:-5-5-5-5-5-5-5-5-5----------------|

eb:------------------------------------------|
Bb:------------------------------------------|
Gb:------------------------------------------|
Db:-9-9-9-9-9-9-9-9-9-9-10-10-12-12-12-12-12-|
Ab:-7-7-7-7-7-7-7-7-7-7-8--8--10-10-10-10-10-|
Eb:------------------------------------------|

eb:------------------------------------------|
Bb:------------------------------------------|
Gb:------------------------------------------|
Db:-9-9-9-9-9-9-9-9-9-9-10-10-12-12-12-12-12-|
Ab:-7-7-7-7-7-7-7-7-7-7-8--8--10-10-10-10-10-|
Eb:------------------------------------------|

eb:--------------------------------|
Bb:--------------------------------|
Gb:--------------------7/8-7---5-7-|
Db:-7-7-7-7-7-7-7-7-7--7/8-7---5-7-|
Ab:-7-7-7-7-7-7-7-7-7--5/6-5-0-3-5-|
Eb:-5-5-5-5-5-5-5-5-5--------------|

eb:----------------------------------|
Bb:----------------------------------|
Gb:--------------------7/8-7---7-7-7-|
Db:-7-7-7-7-7-7-7-7-7--7/8-7---7-7-7-|
Ab:-7-7-7-7-7-7-7-7-7--5/6-5-0-5-5-5-|
Eb:-5-5-5-5-5-5-5-5-5----------------|

:------------------|
:------------------|
:------------------|
:-------5----------|
:-5-6-7---7-6-5----|
:---------------8--|

eb:--------------------------------|
Bb:--------------------------------|
Gb:--------------------7/8-7---5-7-|
Db:-7-7-7-7-7-7-7-7-7--7/8-7---5-7-|
Ab:-7-7-7-7-7-7-7-7-7--5/6-5-0-3-5-|
Eb:-5-5-5-5-5-5-5-5-5--------------|

eb:----------------------------------|
Bb:----------------------------------|
Gb:--------------------7/8-7---7-7-7-|
Db:-7-7-7-7-7-7-7-7-7--7/8-7---7-7-7-|
Ab:-7-7-7-7-7-7-7-7-7--5/6-5-0-5-5-5-|
Eb:-5-5-5-5-5-5-5-5-5----------------|

eb:--------------------------------|
Bb:--------------------------------|
Gb:--------------------7/8-7---5-7-|
Db:-7-7-7-7-7-7-7-7-7--7/8-7---5-7-|
Ab:-7-7-7-7-7-7-7-7-7--5/6-5-0-3-5-|
Eb:-5-5-5-5-5-5-5-5-5--------------|

eb:----------------------------------|
Bb:----------------------------------|
Gb:--------------------7/8-7---7-7-7-|
Db:-7-7-7-7-7-7-7-7-7--7/8-7---7-7-7-|
Ab:-7-7-7-7-7-7-7-7-7--5/6-5-0-5-5-5-|
Eb:-5-5-5-5-5-5-5-5-5----------------|

eb:------------------------------------------|
Bb:------------------------------------------|
Gb:------------------------------------------|
Db:-9-9-9-9-9-9-9-9-9-9-10-10-12-12-12-12-12-|
Ab:-7-7-7-7-7-7-7-7-7-7-8--8--10-10-10-10-10-|
Eb:------------------------------------------|

eb:------------------------------------------|
Bb:------------------------------------------|
Gb:------------------------------------------|
Db:-9-9-9-9-9-9-9-9-9-9-10-10-12-12-12-12-12-|
Ab:-7-7-7-7-7-7-7-7-7-7-8--8--10-10-10-10-10-|
Eb:------------------------------------------|

eb:--------------------------------|
Bb:--------------------------------|
Gb:--------------------7/8-7---5-7-|
Db:-7-7-7-7-7-7-7-7-7--7/8-7---5-7-|
Ab:-7-7-7-7-7-7-7-7-7--5/6-5-0-3-5-|
Eb:-5-5-5-5-5-5-5-5-5--------------|

eb:----------------------------------|
Bb:----------------------------------|
Gb:--------------------7/8-7---7-7-7-|
Db:-7-7-7-7-7-7-7-7-7--7/8-7---7-7-7-|
Ab:-7-7-7-7-7-7-7-7-7--5/6-5-0-5-5-5-|
Eb:-5-5-5-5-5-5-5-5-5----------------|

eb:--------------------------------|
Bb:--------------------------------|
Gb:--------------------7/8-7---5-7-|
Db:-7-7-7-7-7-7-7-7-7--7/8-7---5-7-|
Ab:-7-7-7-7-7-7-7-7-7--5/6-5-0-3-5-|
Eb:-5-5-5-5-5-5-5-5-5--------------|

eb:-------------------------------------|
Bb:-------------------------------------|
Gb:--------------------7/8-7---7-7-7----|
Db:-7-7-7-7-7-7-7-7-7--7/8-7---7-7-7--7-|
Ab:-7-7-7-7-7-7-7-7-7--5/6-5-0-5-5-5--7-|
Eb:-5-5-5-5-5-5-5-5-5-----------------5-|


eb:---------------------------------|
Bb:---------------------------------|
Gb:-----5---5-------5-------7-7-7-7-|
Db:-----5---5-------5-------7-7-7-7-|
Ab:-0-0---0---0-0-0---0-0-0---------|
Eb:---------------------------------|

eb:----------------------------------|
Bb:----------------------------------|
Gb:-----5---5-------5----------------|
Db:-----5---5-------5-----5----------|
Ab:-0-0---0---0-0-0---6-7---7-6-5----|
Eb:-------------------------------8--|

solo
eb:-5b-5b-5b--5--------------------------------------------------|
Bb:-8b-8b-8b----8-5h8p5------------------------------------------|
Gb:---------------------7p5-7b--7-5-7bp5---5---------------------|
Db:--------------------------------------7---7-6-5---------------|
Ab:-------------------------------------------------7-5h6p5------|
Eb:---------------------------------------------------------8-5--|

eb:-5b-5b-5b--5--------------------------------------------------|
Bb:-8b-8b-8b----8-5h8p5------------------------------------------|
Gb:---------------------7p5-7b--7-5-7bp5---5---------------------|
Db:--------------------------------------7---7-6-5---------------|
Ab:-------------------------------------------------7-5h6p5------|
Eb:---------------------------------------------------------8-5--|

eb:------------------------------------------|
Bb:------------------------------------------|
Gb:------------------------------------------|
Db:-9-9-9-9-9-9-9-9-9-9-10-10-12-12-12-12-12-|
Ab:-7-7-7-7-7-7-7-7-7-7-8--8--10-10-10-10-10-|
Eb:------------------------------------------|

eb:------------------------------------------|
Bb:------------------------------------------|
Gb:------------------------------------------|
Db:-9-9-9-9-9-9-9-9-9-9-10-10-12-12-12-12-12-|
Ab:-7-7-7-7-7-7-7-7-7-7-8--8--10-10-10-10-10-|
Eb:------------------------------------------|

eb:------------------------------------------|
Bb:------------------------------------------|
Gb:------------------------------------------|
Db:-9-9-9-9-9-9-9-9-9-9-10-10-12-12-12-12-12-|
Ab:-7-7-7-7-7-7-7-7-7-7-8--8--10-10-10-10-10-|
Eb:------------------------------------------|

eb:------------------------------------------|
Bb:------------------------------------------|
Gb:------------------------------------------|
Db:-9-9-9-9-9-9-9-9-9-9-10-10-12-12-12-12-12-|
Ab:-7-7-7-7-7-7-7-7-7-7-8--8--10-10-10-10-10-|
Eb:------------------------------------------|

eb:--------------------------------|
Bb:--------------------------------|
Gb:--------------------7/8-7---5-7-|
Db:-7-7-7-7-7-7-7-7-7--7/8-7---5-7-|
Ab:-7-7-7-7-7-7-7-7-7--5/6-5-0-3-5-|
Eb:-5-5-5-5-5-5-5-5-5--------------|

eb:----------------------------------|
Bb:----------------------------------|
Gb:--------------------7/8-7---7-7-7-|
Db:-7-7-7-7-7-7-7-7-7--7/8-7---7-7-7-|
Ab:-7-7-7-7-7-7-7-7-7--5/6-5-0-5-5-5-|
Eb:-5-5-5-5-5-5-5-5-5----------------|

eb:--------------------------------|
Bb:--------------------------------|
Gb:--------------------7/8-7---5-7-|
Db:-7-7-7-7-7-7-7-7-7--7/8-7---5-7-|
Ab:-7-7-7-7-7-7-7-7-7--5/6-5-0-3-5-|
Eb:-5-5-5-5-5-5-5-5-5--------------|

eb:-------------------------------------|
Bb:-------------------------------------|
Gb:--------------------7/8-7---7-7-7----|
Db:-7-7-7-7-7-7-7-7-7--7/8-7---7-7-7--7-|
Ab:-7-7-7-7-7-7-7-7-7--5/6-5-0-5-5-5--7-|
Eb:-5-5-5-5-5-5-5-5-5-----------------5-|

eb:---------------------------------|
Bb:---------------------------------|
Gb:-----5---5-------5-------7-7-7-7-|
Db:-----5---5-------5-------7-7-7-7-|
Ab:-0-0---0---0-0-0---0-0-0---------|
Eb:---------------------------------|

eb:---------------------------------|
Bb:---------------------------------|
Gb:-----5---5-------5-------7-7-7-7-|
Db:-----5---5-------5-------7-7-7-7-|
Ab:-0-0---0---0-0-0---0-0-0---------|
Eb:---------------------------------|

eb:---------------------------------|
Bb:---------------------------------|
Gb:-----5---5-------5-------7-7-7-7-|
Db:-----5---5-------5-------7-7-7-7-|
Ab:-0-0---0---0-0-0---0-0-0---------|
Eb:---------------------------------|

eb:--------------------------------------|
Bb:--------------------------------------|
Gb:-----5---5-------5--------------------|
Db:-----5---5-------5-----5--------------|
Ab:-0-0---0---0-0-0---6-7---7-6-5----7-7-|
Eb:-------------------------------8--5-5-|
            
Submit corrections

comments powered by Disqus
↑ Back to top | Zeke Tabs for Lets Go. Lyrics for acoustic guitar and electric guitar. 1 Tablatures and chords are parodies/interpretations of the original songs. You may use it for private study, scholarship, research or language learning purposes only