» » »

Zeke, Let's Get Drugs Tabs (ver.1)

Artists:  A B C D E F G H I J K L M N O P Q R S T U V W X Y Z # 

Let's Get Drugs Tabs (ver.1)

Zeke Tabs
 Rating:
4/5 (4 votes)
Let's Get Drugs lessons Tabs too difficult? Try these video lessons and learn fast
1
                let's get drugs


zeke






eb:------------------|
Bb:------------------|
Gb:------------------|
Db:-2-2-2-2-2--7-5-7-|
Ab:-0-0-0-0-0--5-3-5-|
Eb:------------------|

eb:---------------------------------------|
Bb:---------------------------------------|
Gb:---------------------------------------|
Db:-9-9-9-9-9-9-9-9-9-9-9-9-9-9-9-9-9-9-9-|
Ab:-7-7-7-7-7-7-7-7-7-7-7-7-7-7-7-7-7-7-7-|
Eb:---------------------------------------|

eb:------------------|
Bb:------------------|
Gb:------------------|
Db:-2-2-2-2-2--7-5-7-|
Ab:-0-0-0-0-0--5-3-5-|
Eb:------------------|

eb:------------------------------------------|
Bb:------------------------------------------|
Gb:------------------------------------------|
Db:------------------------------------------|
Ab:-0-3-5-6-5-3--0-3-5-6-5/------------------|
Eb:------------------------------------------|

eb:------------------|
Bb:------------------|
Gb:------------------|
Db:-2-2-2-2-2--7-5-7-|
Ab:-0-0-0-0-0--5-3-5-|
Eb:------------------|


eb:------------------------------------------|
Bb:------------------------------------------|
Gb:------------------------------------------|
Db:------------------------------------------|
Ab:-0-3-5-6-5-3--0-3-5-6-5-3-----------------|
Eb:------------------------------------------|

eb:------------------|
Bb:------------------|
Gb:------------------|
Db:-2-2-2-2-2--7-5-7-|
Ab:-0-0-0-0-0--5-3-5-|
Eb:------------------|

eb:---------------------------------------|
Bb:---------------------------------------|
Gb:---------------------------------------|
Db:-9-9-9-9-9-9-9-9-9-9-9-9-9-9-9-9-9-9-9-|
Ab:-7-7-7-7-7-7-7-7-7-7-7-7-7-7-7-7-7-7-7-|
Eb:---------------------------------------|

eb:------------------------------------------|
Bb:------------------------------------------|
Gb:------------------------------------------|
Db:-9-9-9-9-9-12--9-9-9-9-9-12--9-9-9-9-9-12-|
Ab:-7-7-7-7-7-10--7-7-7-7-7-10--7-7-7-7-7-10-|
Eb:------------------------------------------|

eb:------------------|
Bb:------------------|
Gb:------------------|
Db:-2-2-2-2-2--7-5-7-|
Ab:-0-0-0-0-0--5-3-5-|
Eb:------------------|


:-----------------------------------------|
:-----------------------------------------|
:-----------------------------------------|
:-2-2-2-----------------------------------|
:-0-0-0-----------------------------------|
:-----------------------------------------|
            
Submit corrections

comments powered by Disqus
↑ Back to top | Zeke Tabs for Let's Get Drugs. Lyrics for acoustic guitar and electric guitar. 1 Tablatures and chords are parodies/interpretations of the original songs. You may use it for private study, scholarship, research or language learning purposes only