» » »

Lawson Tabs (ver.1)

Artists:  A B C D E F G H I J K L M N O P Q R S T U V W X Y Z # 

Lawson Tabs (ver.1)

Zeke
Rating:
0/5 (0 votes)

Hard to play? Try these video lessons and learn fast.
                lawson


zeke





e:---------------------------------------------------------------------|
B:---------------------------------------------------------------------|
G:---------------------------------------------------------------------|
D:-2-2-2-2-2-2-2-2-2-555--2-2-2-2-2-2-2-2-2-555--2-2-2-2-2-2-2-2-2-555-|
A:-0-0-0-0-0-0-0-0-0-333--0-0-0-0-0-0-0-0-0-333--0-0-0-0-0-0-0-0-0-333-|
E:---------------------------------------------------------------------|

e:---------------------------------------------------------|
B:---------------------------------------------------------|
G:---------------------------------------------------------|
D:-7-7-7-7-7--10-10-10-10-10-10----------------------------|
A:-5-5-5-5-5--8--8--8--8--8--8---10-10-10-10-10--5-5-5-5-5-|
E:-------------------------------8--8--8--8--8---3-3-3-3-3-|

e:----------------------------------------------|
B:----------------------------------------------|
G:----------------------------------------------|
D:-7-7-7-7-7--10-10-10-10-10-10-----------------|
A:-5-5-5-5-5--8--8--8--8--8--8---10-10-10-10-10-|
E:-------------------------------8--8--8--8--8--|

e:---------------------------------------------------------|
B:---------------------------------------------------------|
G:---------------------------------------------------------|
D:-7-7-7-7-7--10-10-10-10-10-10----------------------------|
A:-5-5-5-5-5--8--8--8--8--8--8---10-10-10-10-10--5-5-5-5-5-|
E:-------------------------------8--8--8--8--8---3-3-3-3-3-|

e:-----------------------------------|
B:-----------------------------------|
G:-----------------------------------|
D:-7-7-7-7-7--10-10-10-10-10-10------|
A:-5-5-5-5-5--8--8--8--8--8--8---10--|
E:-------------------------------8---|

e:---------------------------------------------------------|
B:---------------------------------------------------------|
G:---------------------------------------------------------|
D:-7-7-7-7-7--10-10-10-10-10-10----------------------------|
A:-5-5-5-5-5--8--8--8--8--8--8---10-10-10-10-10--5-5-5-5-5-|
E:-------------------------------8--8--8--8--8---3-3-3-3-3-|

e:----------------------------------------------|
B:----------------------------------------------|
G:----------------------------------------------|
D:-7-7-7-7-7--10-10-10-10-10-10-----------------|
A:-5-5-5-5-5--8--8--8--8--8--8---10-10-10-10-10-|
E:-------------------------------8--8--8--8--8--|

e:---------------------------------------------------------|
B:---------------------------------------------------------|
G:---------------------------------------------------------|
D:-7-7-7-7-7--10-10-10-10-10-10----------------------------|
A:-5-5-5-5-5--8--8--8--8--8--8---10-10-10-10-10--5-5-5-5-5-|
E:-------------------------------8--8--8--8--8---3-3-3-3-3-|

e:---------------------------------------------------------|
B:---------------------------------------------------------|
G:---------------------------------------------------------|
D:-7-7-7-7-7--10-10-10-10-10-10----------------------------|
A:-5-5-5-5-5--8--8--8--8--8--8---10-10-10-10-10--5-5-5-5-5-|
E:-------------------------------8--8--8--8--8---3-3-3-3-3-|

e:---------------------------------------------------------------|
B:---------------------------------------------------------------|
G:---------------------------------------------------------------|
D:-2-2-2-2-2-2-2-2-2-5--2-2-2-2-2-2-2-2-2-5--2-2-2-2-2-2-2-2-2-5-|
A:-0-0-0-0-0-0-0-0-0-3--0-0-0-0-0-0-0-0-0-3--0-0-0-0-0-0-0-0-0-3-|
E:---------------------------------------------------------------|

e:--------------------------|
B:--------------------------|
G:--------------------------|
D:--7-7-7-7-7-7-7-7-7-7-7-7-|
A:--5-5-5-5-5-5-5-5-5-5-5-5-|
E:--------------------------|

:-----------------------------------------|
:-----------------------------------------|
:-----------------------------------------|
:--7-------------7---(7)---(7)------------|
:--5---3--5--3---5---(5)---(5)------------|
:------1--3--1----------------------------|
            
Hard to play? Try these video lessons and learn fast. | Correct




comments powered by Disqus
↑ Back to top | Tablatures and chords are parodies/interpretations of the original songs. You may use it for private study, scholarship, research or language learning purposes only