» » »

Zeke, King Of Lynnwood Tabs (ver.1)

Artists:  A B C D E F G H I J K L M N O P Q R S T U V W X Y Z # 

King Of Lynnwood Tabs (ver.1)

Zeke Tabs
 Rating:
4/5 (4 votes)
King Of Lynnwood lessons Tabs too difficult? Try these video lessons and learn fast
                

tune 3 steps down
       
                
Eb|--------------------------5--------|
Bb|-----------------------5--5-5------|
F#|-----------------------6--6-6--6---|
C#|-2---5---2---8-7-5--7--7-------7---|
G#|-2---5---2---8-7-5--7----------7---|
C#|-0---3---0---6-5-3--5--------------|

Eb|---------------------------------------|
Bb|---------------------------------------|
F#|---------------------------------------|
C#|---------------------------------------|
G#|-2--5--2---8---9-8-7--7--6--5----------|
C#|-0--3--0---6-0-7-6-5-----------7--6--5-|

Eb|--------------------------5---------|
Bb|-----------------------5--5-5-5-----|
F#|-----------------------6--6-6---6---|
C#|-2---5---2---8-7-5--7--7--------7---|
G#|-2---5---2---8-7-5--7-----------7---|
C#|-0---3---0---6-5-3--5---------------|

Eb|---------------------------------------|
Bb|---------------------------------------|
F#|---------------------------------------|
C#|---------------------------------------|
G#|-2--5--2---8---9-8-7--7--6--5----------|
C#|-0--3--0---6-0-7-6-5-----------7--6--5-|

Eb|--------------------------|
Bb|--------------------------|
F#|--------------------------|
C#|-2------------------------|
G#|-2------------------------|
C#|-0------------------------|

Eb|-------------------------|
Bb|-------------------------|
F#|-------------------------|
C#|-------------------------|
G#|-2--5--2---8--5--7--2----|
C#|-0--3--0---6--3--5--0----|

Eb|-------------------------|
Bb|-------------------------|
F#|-------------------------|
C#|-------------------------|
G#|-2--5--2---8--5--7--8----|
C#|-0--3--0---6--3--5--6----|


Eb|-------------------------|
Bb|-------------------------|
F#|-------------------------|
C#|-------------------------|
G#|-2--5--2---8--5--7--2----|
C#|-0--3--0---6--3--5--0----|

Eb|-------------------------|
Bb|-------------------------|
F#|-------------------------|
C#|-------------------------|
G#|-2--5--2---8--5--7--8----|
C#|-0--3--0---6--3--5--6----|

Eb|--------------------------5--------|
Bb|-----------------------5--5-5------|
F#|-----------------------6--6-6--6---|
C#|-2---5---2---8-7-5--7--7-------7---|
G#|-2---5---2---8-7-5--7----------7---|
C#|-0---3---0---6-5-3--5--------------|

Eb|---------------------------------------|
Bb|---------------------------------------|
F#|---------------------------------------|
C#|---------------------------------------|
G#|-2--5--2---8---9-8-7--7--6--5----------|
C#|-0--3--0---6-0-7-6-5-----------7--6--5-|

Eb|--------------------------|
Bb|--------------------------|
F#|--------------------------|
C#|-2------------------------|
G#|-2------------------------|
C#|-0------------------------|

Eb|-------------------------|
Bb|-------------------------|
F#|-------------------------|
C#|-------------------------|
G#|-2--5--2---8--5--7--2----|
C#|-0--3--0---6--3--5--0----|

Eb|-------------------------|
Bb|-------------------------|
F#|-------------------------|
C#|-------------------------|
G#|-2--5--2---8--5--7--8----|
C#|-0--3--0---6--3--5--6----|

Eb|-------------------------|
Bb|-------------------------|
F#|-------------------------|
C#|-------------------------|
G#|-2--5--2---8--5--7--2----|
C#|-0--3--0---6--3--5--0----|

Eb|-------------------------|
Bb|-------------------------|
F#|-------------------------|
C#|-------------------------|
G#|-2--5--2---8--5--7--8----|
C#|-0--3--0---6--3--5--6----|

Eb|--------------------------5--------|
Bb|-----------------------5--5-5------|
F#|-----------------------6--6-6--6---|
C#|-2---5---2---8-7-5--7--7-------7---|
G#|-2---5---2---8-7-5--7----------7---|
C#|-0---3---0---6-5-3--5--------------|

Eb|---------------------------------------|
Bb|---------------------------------------|
F#|---------------------------------------|
C#|---------------------------------------|
G#|-2--5--2---8---9-8-7--7--6--5----------|
C#|-0--3--0---6-0-7-6-5-----------7--6--5-|

Eb|--------------------------5--------|
Bb|-----------------------5--5-5------|
F#|-----------------------6--6-6--6---|
C#|-2---5---2---8-7-5--7--7-------7---|
G#|-2---5---2---8-7-5--7----------7---|
C#|-0---3---0---6-5-3--5--------------|

Eb|---------------------------------------|
Bb|---------------------------------------|
F#|---------------------------------------|
C#|---------------------------------------|
G#|-2--5--2---8---9-8-7--7--6--5----------|
C#|-0--3--0---6-0-7-6-5-----------7--6--5-|


Eb|----------------------|
Bb|----------------------|
F#|----------------------|
C#|----------------------|
G#|-----7--6--5----------|
C#|--0-----------7--6--5-|

Eb|-------------------------|
Bb|-------------------------|
F#|-------------------------|
C#|-------------------------|
G#|-----7--6--5-----------2-|
C#|--0-----------7--6--5--0-|


Eb|---------------|
Bb|---------------|
F#|---------------|
C#|-9-9-9---------|
G#|-7-7-7---------|
C#|--------3-4-5--|

Eb|---------------|
Bb|---------------|
F#|---------------|
C#|-9-9-9---------|
G#|-7-7-7---------|
C#|--------3-4-5--|

Eb|---------------|
Bb|---------------|
F#|---------------|
C#|-9-9-9---------|
G#|-7-7-7---------|
C#|--------3-4-5--|

Eb|---------------|
Bb|---------------|
F#|---------------|
C#|-9-9-9---------|
G#|-7-7-7---------|
C#|--------3-4-5--|

Eb|----------------|
Bb|-5b-5b-5b-------|
F#|-7b-7b-7b-------|
C#|----------------|
G#|----------------|
C#|----------3-4-5-|

Eb|----------------|
Bb|-5b-5b-5b-------|
F#|-7b-7b-7b-------|
C#|----------------|
G#|----------------|
C#|----------3-4-5-|

Eb|----------------|
Bb|-5b-5b-5b-------|
F#|-7b-7b-7b-------|
C#|----------------|
G#|----------------|
C#|----------3-4-5-|

Eb|----------------|
Bb|-5b-5b-5b-------|
F#|-7b-7b-7b-------|
C#|----------------|
G#|----------------|
C#|----------3-4-5-|

Eb|----------------|
Bb|-5b-5b-5b-------|
F#|-7b-7b-7b-------|
C#|----------------|
G#|----------------|
C#|----------3-4-5-|


Eb|------------------|
Bb|------------------|
F#|------------------|
C#|-9--7-------------|
G#|-7--5--9-8-7--5---|
C#|-------7-6-5--3---|

Eb|------------------|
Bb|------------------|
F#|------------------|
C#|-9--7-------------|
G#|-7--5--9-8-7--5---|
C#|-------7-6-5--3---|

Eb|-------------------|
Bb|-------------------|
F#|-------------------|
C#|-9--7--------------|
G#|-7--5--9-8-7--5--2-|
C#|-------7-6-5--3--0-|
            
Submit corrections

comments powered by Disqus
↑ Back to top | Zeke Tabs for King Of Lynnwood. Lyrics for acoustic guitar and electric guitar. Tablatures and chords are parodies/interpretations of the original songs. You may use it for private study, scholarship, research or language learning purposes only