» » »

Zeke, Killer Inside Tabs (ver.1)

Artists:  A B C D E F G H I J K L M N O P Q R S T U V W X Y Z # 

Killer Inside Tabs (ver.1)

Zeke Tabs
 Rating:
4/5 (4 votes)
Killer Inside lessons Tabs too difficult? Try these video lessons and learn fast
                killer inside


zeke






e:------------------------------------------------|
B:------------------------------------------------|
G:------------------------------------------------|
D:------------------------------------------------|
A:-6-6-6-6-6--9-9-9-9-9--11-11-11-11-11-9-9-9-9-9-|
E:-4-4-4-4-4--7-7-7-7-7--9--9--9--9--9--7-7-7-7-7-|

e:-------------------------------------------------------|
B:-------------------------------------------------------|
G:-------------------------------------------------------|
D:-------------------------------------------------------|
A:-6-6-6-6-6--9-9-9-9-9--11-11-11-11-11-11-11-11-12-11-9-|
E:-4-4-4-4-4--7-7-7-7-7--9--9--9--9--9--9--9--9--10-9--7-|

e:------------------------------------------------|
B:------------------------------------------------|
G:------------------------------------------------|
D:------------------------------------------------|
A:-6-6-6-6-6--9-9-9-9-9--11-11-11-11-11-9-9-9-9-9-|
E:-4-4-4-4-4--7-7-7-7-7--9--9--9--9--9--7-7-7-7-7-|

e:-----------------------------------------------|
B:-----------------------------------------------|
G:-----------------------------------------------|
D:-----------------------------------------------|
A:-6-6-6-6-6--9-9-9-9-9--11-11-11-11-11-11-13-14-|
E:-4-4-4-4-4--7-7-7-7-7--9--9--9--9--9--9--11-12-|


e:---------------------|
B:---------------------|
G:---------------------|
D:---------------------|
A:-6-6-6-6-6--12-11-11-|
E:-4-4-4-4-4--10-9--9--|


e:-----------|
B:-----------|
G:-----------|
D:-----------|
A:-6--9--11--|
E:-4--7--9---|


e:------------------------------------------------|
B:------------------------------------------------|
G:------------------------------------------------|
D:------------------------------------------------|
A:-6-6-6-6-6--9-9-6-6-6-6-6-11-11-6-6-6-6-6-9-11--|
E:-4-4-4-4-4--7-7-4-4-4-4-4-9--9--4-4-4-4-4-7-9---|

e:----------------------------|
B:----------------------------|
G:----------------------------|
D:----------------------------|
A:--11-11-11-11-11-11-12-11-9-|
E:--9--9--9--9--9--9--10-9--7-|

e:------------------------------------------------|
B:------------------------------------------------|
G:------------------------------------------------|
D:------------------------------------------------|
A:-6-6-6-6-6--9-9-9-9-9--11-11-11-11-11-9-9-9-9-9-|
E:-4-4-4-4-4--7-7-7-7-7--9--9--9--9--9--7-7-7-7-7-|

e:-------------------------------------------------------|
B:-------------------------------------------------------|
G:-------------------------------------------------------|
D:-------------------------------------------------------|
A:-6-6-6-6-6--9-9-9-9-9--11-11-11-11-11-11-11-11-12-11-9-|
E:-4-4-4-4-4--7-7-7-7-7--9--9--9--9--9--9--9--9--10-9--7-|

e:------------------------------------------------|
B:------------------------------------------------|
G:------------------------------------------------|
D:------------------------------------------------|
A:-6-6-6-6-6--9-9-9-9-9--11-11-11-11-11-9-9-9-9-9-|
E:-4-4-4-4-4--7-7-7-7-7--9--9--9--9--9--7-7-7-7-7-|

e:-----------------------------------------------|
B:-----------------------------------------------|
G:-----------------------------------------------|
D:-----------------------------------------------|
A:-6-6-6-6-6--9-9-9-9-9--11-11-11-11-11-11-13-14-|
E:-4-4-4-4-4--7-7-7-7-7--9--9--9--9--9--9--11-12-|


e:---------------------|
B:---------------------|
G:---------------------|
D:---------------------|
A:-6-6-6-6-6--12-11-11-|
E:-4-4-4-4-4--10-9--9--|


e:-----------|
B:-----------|
G:-----------|
D:-----------|
A:-6--9--11--|
E:-4--7--9---|

e:-----------|
B:-----------|
G:-----------|
D:-----------|
A:-6--9--11--|
E:-4--7--9---|

e:-----------|
B:-----------|
G:-----------|
D:-----------|
A:-6--9--11--|
E:-4--7--9---|


e:------------|
B:------------|
G:------------|
D:------------|
A:-12-11-9--6-|
E:-10-9--7--4-|
            
Submit corrections

comments powered by Disqus
↑ Back to top | Zeke Tabs for Killer Inside. Lyrics for acoustic guitar and electric guitar. Tablatures and chords are parodies/interpretations of the original songs. You may use it for private study, scholarship, research or language learning purposes only