» » »

Kicked In The Teeth Tabs (ver.1)

Artists:  A B C D E F G H I J K L M N O P Q R S T U V W X Y Z # 

Kicked In The Teeth Tabs (ver.1)

Zeke
Rating:
0/5 (0 votes)

Hard to play? Try these video lessons and learn fast.
                kicked in the teeth


zeke






e:-------------------|
B:-------------------|
G:-------------------|
D:-2-2-2-2-2-2-5-7-8-|
A:-0-0-0-0-0-0-3-5-6-|
E:-------------------|

verse
e:---------------------------------|
B:---------------------------------|
G:---------------------------------|
D:-2-2-2-2-2-2-5--2-2-2-2-2-2--5-7-|
A:-0-0-0-0-0-0-3--0-0-0-0-0-0--3-5-|
E:---------------------------------|

e:---------------|
B:---------------|
G:---------------|
D:-2-2-2-2-2-2-5-|
A:-0-0-0-0-0-0-3-|
E:---------------|

e:----------------------------|
B:----------------------------|
G:----------------------------|
D:-7-7-7-7-7-7-7-8-8-8-5-5-5--|
A:-5-5-5-5-5-5-5-6-6-6-3-3-3--|
E:----------------------------|

e:---------------------------------|
B:---------------------------------|
G:---------------------------------|
D:-2-2-2-2-2-2-5--2-2-2-2-2-2--5-7-|
A:-0-0-0-0-0-0-3--0-0-0-0-0-0--3-5-|
E:---------------------------------|

e:---------------|
B:---------------|
G:---------------|
D:-2-2-2-2-2-2-5-|
A:-0-0-0-0-0-0-3-|
E:---------------|

e:-----------------------------|
B:-----------------------------|
G:-----------------------------|
D:-7-7-7-7-7-7-7-7-7-7-7-7-7-7-|
A:-5-5-5-5-5-5-5-5-5-5-5-5-5-5-|
E:-----------------------------|


e:-------------------------------------------------------------------|
B:-------------------------------------------------------------------|
G:-------------------------------------------------------------------|
D:-2-2-2-2-2-2-2-2-2--5--7-7-7-7-7-7--2-2-2-2-2-2-2-2--8-7-7-7-7-7-7-|
A:-0-0-0-0-0-0-0-0-0--3--5-5-5-5-5-5--0-0-0-0-0-0-0-0--6-5-5-5-5-5-5-|
E:-------------------------------------------------------------------|

e:--------------------------------------------------|
B:--------------------------------------------------|
G:--------------------------------------------------|
D:-2-2-2-2-2-2-2-2-2--5--7-7-7-7-7-7--5-5-5-5-5-5-5-|
A:-0-0-0-0-0-0-0-0-0--3--5-5-5-5-5-5--3-3-3-3-3-3-3-|
E:--------------------------------------------------|

e:-------------------------------------------------------------------|
B:-------------------------------------------------------------------|
G:-------------------------------------------------------------------|
D:-2-2-2-2-2-2-2-2-2--5--7-7-7-7-7-7--2-2-2-2-2-2-2-2--8-7-7-7-7-7-7-|
A:-0-0-0-0-0-0-0-0-0--3--5-5-5-5-5-5--0-0-0-0-0-0-0-0--6-5-5-5-5-5-5-|
E:-------------------------------------------------------------------|

e:--------------------------------------|
B:--------------------------------------|
G:--------------------------------------|
D:-2-2-2-2-2-2-2-2-2--5--7-7-7-7-7-7--5-|
A:-0-0-0-0-0-0-0-0-0--3--5-5-5-5-5-5--3-|
E:--------------------------------------|

:---------------------|
:---------------------|
:---------------------|
:-4-4-4-4-4-4-4--7--9-|
:-2-2-2-2-2-2-2--5--7-|
:---------------------|

      repeat
e:----------------------------|--------------|
B:-10b--10b--10b--10b-10b-10b-|-10b-13b-15b--|
G:-12b--12b--12b--12b-12b-12b-|-12b-15b-17b--|
D:----------------------------|--------------|
A:----------------------------|--------------|
E:----------------------------|--------------|

verse
e:---------------------------------|
B:---------------------------------|
G:---------------------------------|
D:-2-2-2-2-2-2-5--2-2-2-2-2-2--5-7-|
A:-0-0-0-0-0-0-3--0-0-0-0-0-0--3-5-|
E:---------------------------------|

e:---------------|
B:---------------|
G:---------------|
D:-2-2-2-2-2-2-5-|
A:-0-0-0-0-0-0-3-|
E:---------------|

e:-----------------------------|
B:-----------------------------|
G:-----------------------------|
D:-7-7-7-7-7-7-7-7-7-7-7-7-7-7-|
A:-5-5-5-5-5-5-5-5-5-5-5-5-5-5-|
E:-----------------------------|

e:-------------------------------------------------------------------|
B:-------------------------------------------------------------------|
G:-------------------------------------------------------------------|
D:-2-2-2-2-2-2-2-2-2--5--7-7-7-7-7-7--2-2-2-2-2-2-2-2--8-7-7-7-7-7-7-|
A:-0-0-0-0-0-0-0-0-0--3--5-5-5-5-5-5--0-0-0-0-0-0-0-0--6-5-5-5-5-5-5-|
E:-------------------------------------------------------------------|

e:--------------------------------------------------|
B:--------------------------------------------------|
G:--------------------------------------------------|
D:-2-2-2-2-2-2-2-2-2--5--7-7-7-7-7-7--5-5-5-5-5-5-5-|
A:-0-0-0-0-0-0-0-0-0--3--5-5-5-5-5-5--3-3-3-3-3-3-3-|
E:--------------------------------------------------|

e:-------------------------------------------------------------------|
B:-------------------------------------------------------------------|
G:-------------------------------------------------------------------|
D:-2-2-2-2-2-2-2-2-2--5--7-7-7-7-7-7--2-2-2-2-2-2-2-2--8-7-7-7-7-7-7-|
A:-0-0-0-0-0-0-0-0-0--3--5-5-5-5-5-5--0-0-0-0-0-0-0-0--6-5-5-5-5-5-5-|
E:-------------------------------------------------------------------|

e:----------------------------------------------------|
B:----------------------------------------------------|
G:----------------------------------------------------|
D:-2-2-2-2-2-2-2-2-2--5--7-7-7-7-7-7--5-5-5-5-5-5-5-5-|
A:-0-0-0-0-0-0-0-0-0--3--5-5-5-5-5-5--3-3-3-3-3-3-3-3-|
E:----------------------------------------------------|

e:-------------------------------------------------------------------|
B:-------------------------------------------------------------------|
G:-------------------------------------------------------------------|
D:-2-2-2-2-2-2-2-2-2--5--7-7-7-7-7-7--2-2-2-2-2-2-2-2--8-7-7-7-7-7-7-|
A:-0-0-0-0-0-0-0-0-0--3--5-5-5-5-5-5--0-0-0-0-0-0-0-0--6-5-5-5-5-5-5-|
E:-------------------------------------------------------------------|

e:--------------------------------------|
B:--------------------------------------|
G:--------------------------------------|
D:-2-2-2-2-2-2-2-2-2--5--7-7-7-7-7-7--5-|
A:-0-0-0-0-0-0-0-0-0--3--5-5-5-5-5-5--3-|
E:--------------------------------------|
            
Hard to play? Try these video lessons and learn fast. | Correct




comments powered by Disqus
↑ Back to top | Tablatures and chords are parodies/interpretations of the original songs. You may use it for private study, scholarship, research or language learning purposes only