» » »

Zeke, Its Alright Tabs (ver.1)

Artists:  A B C D E F G H I J K L M N O P Q R S T U V W X Y Z # 

Its Alright Tabs (ver.1)

Zeke Tabs
 Rating:
4/5 (4 votes)
Its Alright lessons Tabs too difficult? Try these video lessons and learn fast
                






|-----------------|
|-----------------|
|-----------------|
|-2--2-2----------|
|-0--0-0--3p0-3p0-|
|-----------------|


|------------------------------------|
|------------------------------------|
|------------------------------------|
|-77777777777777777-1010101010101010-|
|-55555555555555555-8-8-8-8-8-8-8-8--|
|------------------------------------|


|-----------------|
|-----------------|
|-----------------|
|-2--2-2----------|
|-0--0-0--3p0-3p0-|
|-----------------|



|-----------------------------------------|
|-----------------------------------------|
|-----------------------------------------|
|-----------------------------------------|
|--0000000000--000000000-00000000-0000000-|
|--5555555555--333333333-22222222-1111111-|


|-----------------|
|-----------------|
|-----------------|
|-2--2-2----------|
|-0--0-0--3p0-3p0-|
|-----------------|


|------------------------------------|
|------------------------------------|
|------------------------------------|
|-77777777777777777-1010101010101010-|
|-55555555555555555-8-8-8-8-8-8-8-8--|
|------------------------------------|

pick slide
|--------------|
|--------------|
|--------------|
|--------------|
|-X/-----------|
|-X/-----------|


|-----------------|
|-----------------|
|-----------------|
|-2--2-2----------|
|-0--0-0--3p0-3p0-|
|-----------------|


solo
  ------------ play 2 times----------                repeat
|----5-5-----5-5----5-5----5-5----5-5-|------------|----------------|
|----5-5-----5-5----5-5----5-5----5-5-|------------|-7b-5-7b-5--7~--|
|-7b------7b-----7b-----7b-----7b-----|-7b~~~p5~~~-|-7b-5-7b-5--7~--|
|-------------------------------------|------------|----------------|
|-------------------------------------|------------|----------------|
|-------------------------------------|------------|----------------|


|-----------------|
|-----------------|
|-----------------|
|-2--2-2----------|
|-0--0-0--3p0-3p0-|
|-----------------|


|------------------------------------|
|------------------------------------|
|------------------------------------|
|-77777777777777777-1010101010101010-|
|-55555555555555555-8-8-8-8-8-8-8-8--|
|------------------------------------|

|-----------------|
|-----------------|
|-----------------|
|-2--2-2----------|
|-0--0-0--3p0-3p0-|
|-----------------|


|------------------|
|------------------|
|------------------|
|-2--2-2----------2|
|-0--0-0--3p0-3p0-0|
|------------------|
            
Submit corrections

comments powered by Disqus
↑ Back to top | Zeke Tabs for Its Alright. Lyrics for acoustic guitar and electric guitar. Tablatures and chords are parodies/interpretations of the original songs. You may use it for private study, scholarship, research or language learning purposes only