>
 >
I´Ll Be Your Sister

I´Ll Be Your Sister Guitar Tabs

Zeke - I´Ll Be Your Sister chords, tabs, tablatures, lyrics

Guitar lessons | Add/correct | Request | Top 50 tabs Artists:  A B C D E F G H I J K L M N O P Q R S T U V W X Y Z 0-9

I´Ll Be Your Sister Guitar Tabs – Zeke

CD, Sheet music, Poster

Do you like I´Ll Be Your Sister? Share with your friends now
Tabs
i'll Be your sisTer


zeke





eb:-----------------------|
Bb:---5----7-5--5-7p5-----|
Gb:---5-5--7-5--5-7p5-----|
Db:---------------------7-|
Ab:-----------------------|
Eb:-----------------------|

eb:---------------------------------------|
Bb:-------------------5----7-5--5-7p5-----|
Gb:-------------------5-5--7-5--5-7p5-----|
Db:------7------7-----------------------7-|
Ab:-0-0----0-0-----0----------------------|
Eb:---------------------------------------|

eb:----0---------------------------|
Bb:----0---------------------------|
Gb:--------------------------------|
Db:-2----2-2-2--3--3--3-3-3--3-3-3-|
Ab:-2----2-2-2--3--3--3-3-3--3-3-3-|
Eb:-0----0-0-0--1--1--1-1-1--1-1-1-|
 
:-------------|
:-------------|
:-------------|
:--5-5-5-5-5--|
:--5-5-5-5-5--|
:--3-3-3-3-3--|


eb:---------------------------------------|
Bb:-------------------5----7-5--5-7p5-----|
Gb:-------------------5-5--7-5--5-7p5-----|
Db:------7------7-----------------------7-|
Ab:-0-0----0-0-----0----------------------|
Eb:---------------------------------------|

eb:----0---------------------------|
Bb:----0---------------------------|
Gb:--------------------------------|
Db:-2----2-2-2--3--3--3-3-3--3-3-3-|
Ab:-2----2-2-2--3--3--3-3-3--3-3-3-|
Eb:-0----0-0-0--1--1--1-1-1--1-1-1-|

:-------------|
:-------------|
:-------------|
:--5-5-5-5-5--|
:--5-5-5-5-5--|
:--3-3-3-3-3--|

eb:---------------------------------------|
Bb:-------------------5----7-5--5-7p5-----|
Gb:-------------------5-5--7-5--5-7p5-----|
Db:------7------7-----------------------7-|
Ab:-0-0----0-0-----0----------------------|
Eb:---------------------------------------|

solo
:-----------------------------------------------------------------------------------------|
:-----8-10---8-8-10p8-----8-10-8--10-8-10-8---10-8-10-8--------------8--------------------|
:-7b-------9----------9----------9----------9-----------10-8-10-8-10---10-8-10-8----------|
:-------------------------------------------------------------------------------10-8-10-8-|
:-----------------------------------------------------------------------------------------|
:-----------------------------------------------------------------------------------------|
                           --------------------
:-------------------------/---15----15----15-----12-15-12-14-12----12----------------------|
:--------------------15bf/-15---15----15----15------------------15----15-12-15-12-14-12----|
:---------------------------------------------------------------------------------------15-|
:------------------------------------------------------------------------------------------|
:-10-8-10-8--------------------------------------------------------------------------------|
:------------11-8--------------------------------------------------------------------------|


eb:-------------------------------------------------17--------17-----------17-----17------|
Bb:--------------------------------------------20b-----17-20b----20p17-20b-----20b----20b-|
Gb:-12------------------------------------------------------------------------------------|
Db:----15-12-14-12----12------------------------------------------------------------------|
Ab:----------------15----15-12-14-12~~----------------------------------------------------|
Eb:------------------------------------15-12----------------------------------------------|


eb:-----------17------17-17--17-20-17-20-17------------------------------------------------|
Bb:-20p17-20b----20b------------------------20-17-18-17-18-17------------------------------|
Gb:-----------------------------------------------------------20-17-18-17-18-17------------|
Db:-----------------------------------------------------------------------------20-17-18-17|
Ab:----------------------------------------------------------------------------------------|
Eb:----------------------------------------------------------------------------------------|

eb:----------------------------------------------------------------------------------------|
Bb:--------------------20b-17-20--17h20p17----17-------------------------------------------|
Gb:----------------------------------------19----19--17h19p17----17----------------17-19-17|
Db:-18-17-----------------------------------------------------19----19-17h19p17-19---------|
Ab:-------20-17-18~~~----------------------------------------------------------------------|
Eb:----------------------------------------------------------------------------------------|

eb:----------------------------------------------------------------------------------------|
Bb:----17-20p17-----17-20-17~~-17-20p17----20b--20b---20b--20b--20b-----20-----20----20----|
Gb:-19----------19----------------------19--------------------------19b----19b----19b---19b|
Db:----------------------------------------------------------------------------------------|
Ab:----------------------------------------------------------------------------------------|
Eb:----------------------------------------------------------------------------------------|


eb:---------------------------------------|
Bb:-------------------5----7-5--5-7p5-----|
Gb:-------------------5-5--7-5--5-7p5-----|
Db:------7------7-----------------------7-|
Ab:-0-0----0-0-----0----------------------|
Eb:---------------------------------------|

eb:----0---------------------------|
Bb:----0---------------------------|
Gb:--------------------------------|
Db:-2----2-2-2--3--3--3-3-3--3-3-3-|
Ab:-2----2-2-2--3--3--3-3-3--3-3-3-|
Eb:-0----0-0-0--1--1--1-1-1--1-1-1-|
 


:-------------|
:-------------|
:-------------|
:--5-5-5-5-5--|
:--5-5-5-5-5--|
:--3-3-3-3-3--|

eb:---------------------------------------|
Bb:-------------------5----7-5--5-7p5-----|
Gb:-------------------5-5--7-5--5-7p5-----|
Db:------7------7-----------------------7-|
Ab:-0-0----0-0-----0----------------------|
Eb:---------------------------------------|


solo 2
:-----------------12-15-12----------------------------------------------------------------|
:--------15b---15----------15-12-14-12----------------------------------------------------|
:-7b-----------------------------------15-12-14-12----12----------------------------------|
:--------------------------------------------------14----14-12-14-12----------12-14-12-14-|
:--------------------------------------------------------------------14-12-14-------------|
:-----------------------------------------------------------------------------------------|
                              ---repeat
eb:----------------12~~~--|-15----15----15----15----|------------------------|
Bb:-------------15--------|----17----17----17----17-|-17b-17b-15-------------|
Gb:-12-14-12-14-----------|-------------------------|------------16-14-------|
Db:-----------------------|-------------------------|------------------14----|
Ab:-----------------------|-------------------------|------------------------|
Eb:-----------------------|-------------------------|------------------------|

 
:-17--------17-----17------------17-------------------------------------------|
:----17-20b----20b----20p17--20b----20p17-20-17-20-17-------------------------|
:-----------------------------------------------------19-17-19-17-------------|
:-----------------------------------------------------------------19-17-19-17-|
:-----------------------------------------------------------------------------|
:-----------------------------------------------------------------------------|





Comments


Popular Zeke tabs & chords
Telephat Boy Bass Tabs
Automatic Tabs
Daytime Dilemma Tabs
Highway Star 1 Tabs
Holly 750 Tabs
I Dont Give A Shit Tabs
Lawson Tabs
Slut Tabs
T-500 Tabs
Twisted Tabs


Song lyrics



↑ Back to top | Tablatures and chords are parodies/interpretations of the original songs. You may use it for private study, scholarship, research or language learning purposes only
© 2014 AZChords.com Contact us | Privacy policy | DMCA | Add/correct tabs | Request tabs | Top 50 tabs