» » »

I Dont Give A Shit Tabs (ver.1)

Artists:  A B C D E F G H I J K L M N O P Q R S T U V W X Y Z # 

I Dont Give A Shit Tabs (ver.1)

Zeke
Rating:
0/5 (0 votes)

Hard to play? Try these video lessons and learn fast.
                





|----------------------------|
|----7-----------------------|
|----7-----------------------|
|-------9p7-9p7--------------|
|-7-------------9p7--9p7-----|
|-0----------------------10--|


 pick slide down
|------------------|
|------------------|
|------------------|
|------------------|
|-X/---------------|
|-X/---------------|


|------------------|
|------------------|
|------------------|
|-4--5--6--7--8--9-|
|-2--3--4--5--6--7-|
|------------------|


|----------------------------|
|----7-----------------------|
|----7-----------------------|
|-------9p7-9p7--------------|
|-7-------------9p7--9p7-----|
|-0----------------------10--|

verse
|--------------|
|--------------|
|--------------|
|--------------|
|-9--8--7-/-12-|
|-7--6--5-/-10-|


|-----------------|
|-----------------|
|-----------------|
|-999999999999999-|
|-777777777777777-|
|-----------------|

|--------------|
|--------------|
|--------------|
|--------------|
|-9--8--7-/-12-|
|-7--6--5-/-10-|

i dont care what u said
|-----------|
|-----------|
|-----------|
|-----------|
|-444444444-|
|-222222222-|


|----------------------------|
|----7-----------------------|
|----7-----------------------|
|-------9p7-9p7--------------|
|-7-------------9p7--9p7-----|
|-0----------------------10--|


|--------------|
|--------------|
|--------------|
|--------------|
|-9--8--7-/-12-|
|-7--6--5-/-10-|


|-----------------|
|-----------------|
|-----------------|
|-999999999999999-|
|-777777777777777-|
|-----------------|


|--------------|
|--------------|
|--------------|
|--------------|
|-9--8--7-/-12-|
|-7--6--5-/-10-|


|-----------|
|-----------|
|-----------|
|-----------|
|-444444444-|
|-222222222-|


|----------------------------|
|----7-----------------------|
|----7-----------------------|
|-------9p7-9p7--------------|
|-7-------------9p7--9p7-----|
|-0----------------------10--|


|------------------|
|------------------|
|------------------|
|-4--5--6--7--8--9-|
|-2--3--4--5--6--7-|
|------------------|

solo
  -----repeat-------
|--------------------|------------------------------------------------------------------|
|-9b-9b--9b-9b-9b~~~-|-10b-7h10p7-------------7-----------------9-----------9-7-------7-|
|-9b-9b--9b-9b-9b~~~-|------------10-9-7h9-10---10-9-7-9-9b~~~--9-9b~~-9p7--9-7-------7-|
|--------------------|----------------------------------------------------------9-7-9---|
|--------------------|------------------------------------------------------------------|
|--------------------|------------------------------------------------------------------|

|---------|
|---7--7--|
|---7--7--|
|-9-------|
|---------|
|---------|



|--------------|
|--------------|
|--------------|
|--------------|
|-9--8--7-/-12-|
|-7--6--5-/-10-|


|-----------------|
|-----------------|
|-----------------|
|-999999999999999-|
|-777777777777777-|
|-----------------|


|--------------|
|--------------|
|--------------|
|--------------|
|-9--8--7-/-12-|
|-7--6--5-/-10-|


|-----------|
|-----------|
|-----------|
|-----------|
|-444444444-|
|-222222222-|


|----------------------------|
|----7-----------------------|
|----7-----------------------|
|-------9p7-9p7--------------|
|-7-------------9p7--9p7-----|
|-0----------------------10--|


|------------|
|----7-------|
|----7-------|
|-------7-9/-|
|-7----------|
|-0----------|
            
Hard to play? Try these video lessons and learn fast. | Correct




comments powered by Disqus
↑ Back to top | Tablatures and chords are parodies/interpretations of the original songs. You may use it for private study, scholarship, research or language learning purposes only