» » »

Zeke, Holly 70 Tabs (ver.1)

Artists:  A B C D E F G H I J K L M N O P Q R S T U V W X Y Z # 

Holly 70 Tabs (ver.1)

Zeke Tabs
 Rating:
4/5 (4 votes)
Holly 70 lessons Tabs too difficult? Try these video lessons and learn fast
1
                (5)






|-------------------|
|-------------------|
|-------------------|
|-9-9-9-------------|
|-9-9-9-9-9-9-9-9-9-|
|-7-7-7-7-7-7-7-7-7-|


|----------------------|
|----------------------|
|----------------------|
|-999999999999999------|
|-777777777777777--5-7-|
|------------------3-5-|


|-------------------|
|-------------------|
|-------------------|
|-9-9-9-------------|
|-9-9-9-9-9-9-9-9-9-|
|-7-7-7-7-7-7-7-7-7-|


|-----------|
|-----------|
|-----------|
|-----------|
|-10--11-12-|
|-8---9--10-|


|-----------------------|
|-----------------------|
|-----------------------|
|-999999999999999-------|
|-777777777777777--5-5-5|
|------------------3-3-3|


|-----------|
|-----------|
|-----------|
|-----------|
|-10--11-12-|
|-8---9--10-|

  repeat
|-----------|
|-14b-14p12-|
|-14b-14p12-|
|-----------|
|-----------|
|-----------|


|----------------------|
|----------------------|
|----------------------|
|-999999999999999------|
|-777777777777777--5-7-|
|------------------3-5-|


|-------------------|
|-------------------|
|-------------------|
|-9-9-9-------------|
|-9-9-9-9-9-9-9-9-9-|
|-7-7-7-7-7-7-7-7-7-|


|-----------|
|-----------|
|-----------|
|-----------|
|-10--11-12-|
|-8---9--10-|


|-----------------------|
|-----------------------|
|-----------------------|
|-999999999999999-------|
|-777777777777777--7-7-7|
|------------------5-5-5|

|-------------|
|-------------|
|-------------|
|-------------|
|-9-10--11-12-|
|-7-8---9--10-|

|---------------|
|---------------|
|---------------|
|9--12--11-10-9-|
|7--10--9--8--7-|
|---------------|


 solo
   repeAT
|-14b-14b-14b-|-14-14-17-14-16-14----14----------------------------------------------------|
|-17b-17b-17b-|-------------------17----17-14-16-14----14-------------------------------14-|
|-------------|-------------------------------------17----17-14-16-14----14-16-17-14-16----|
|-------------|-------------------------------------------------------16-------------------|
|-------------|----------------------------------------------------------------------------|
|-------------|----------------------------------------------------------------------------|


|---------------------------14------------------------------------|
|-17-14------------------14----14b-14b-14b-----------------14-----|
|-------16-14-16-14--16b-------16b-16b-16b--16p14----14-16----16b-|
|-------------------------------------------------16--------------|
|-----------------------------------------------------------------|
|-----------------------------------------------------------------|


  repeat
|----------------------|
|-14b-14-12------14-12-|
|-14b-14-12--14b-14-12-|
|----------------------|
|----------------------|
|----------------------|


|-----12------------12-----------12------------12----------|
|-15b----15p12--15b----15p12-15b----15p12--15b-----15p12---|
|----------------------------------------------------------|
|----------------------------------------------------------|
|----------------------------------------------------------|
|----------------------------------------------------------|


|-----------------------------------------------------------|
|-17-17--16-16--15-15--14-14--13-13--12-12--11-11--10--8--5-|
|-16-16--15-15--14-14--13-13--12-12--11-11--10-10--9---7--4-|
|-----------------------------------------------------------|
|-----------------------------------------------------------|
|-----------------------------------------------------------|


|-----------------------|
|-----------------------|
|-----------------------|
|-999999999999999-------|
|-777777777777777--5-5-5|
|------------------3-3-3|


|-----------|
|-----------|
|-----------|
|-----------|
|-10--11-12-|
|-8---9--10-|


 2 times
|-----------------------|
|-----------------------|
|-----------------------|
|-12-12-11-11-10-10-9-9-|
|-10-10-9--9--8--8--7-7-|
|-----------------------|


|-------------|
|-------------|
|-------------|
|-12--11-10-9-|
|-10--9--8--7-|
|-------------|
            
Submit corrections

comments powered by Disqus
↑ Back to top | Zeke Tabs for Holly 70. Lyrics for acoustic guitar and electric guitar. 1 Tablatures and chords are parodies/interpretations of the original songs. You may use it for private study, scholarship, research or language learning purposes only