» » »

Zeke, Haybailer Tabs (ver.1)

Artists:  A B C D E F G H I J K L M N O P Q R S T U V W X Y Z # 

Haybailer Tabs (ver.1)

Zeke Tabs
 Rating:
4/5 (4 votes)
Haybailer lessons Tabs too difficult? Try these video lessons and learn fast
                haybailer


zeke








                  x4                                
eb:-----------------|
Bb:-----------------|
Gb:-----------------|
Db:-7-7-7-7-7--10-5-|
Ab:-5-5-5-5-5--8--3-|
Eb:-0-0-0-0-0--0--0-|

   verse
eb:-----------------|
Bb:-----------------|
Gb:-----------------|
Db:-7-7-7-7-7--10-5-|
Ab:-5-5-5-5-5--8--3-|
Eb:-0-0-0-0-0--0--0-|

eb:-------------------------------|
Bb:-------------------------------|
Gb:-------------------------------|
Db:-------------------------------|
Ab:-3-3-3-3--------5-5-5-5--------|
Eb:-1-1-1-1-0-1-0--3-3-3-3--1-3-1-|

                   x2
eb:-----------------|
Bb:-----------------|
Gb:-----------------|
Db:-7-7-7-7-7--10-5-|
Ab:-5-5-5-5-5--8--3-|
Eb:-0-0-0-0-0--0--0-|

eb:-------------------------------|
Bb:-------------------------------|
Gb:-------------------------------|
Db:-------------------------------|
Ab:-3-3-3-3--------5-5-5-5--------|
Eb:-1-1-1-1-0-1-0--3-3-3-3--1-3-1-|

eb:-----------------|
Bb:-----------------|
Gb:-----------------|
Db:-7-7-7-7-7--10-5-|
Ab:-5-5-5-5-5--8--3-|
Eb:-0-0-0-0-0--0--0-|

eb:--------------|
Bb:--------------|
Gb:--------------|
Db:--------------|
Ab:-3------------|
Eb:---5-4--1-3-1-|

eb:-----------------|
Bb:-----------------|
Gb:-----------------|
Db:-7-7-7-7-7--10-5-|
Ab:-5-5-5-5-5--8--3-|
Eb:-0-0-0-0-0--0--0-|

   verse
eb:-----------------|
Bb:-----------------|
Gb:-----------------|
Db:-7-7-7-7-7--10-5-|
Ab:-5-5-5-5-5--8--3-|
Eb:-0-0-0-0-0--0--0-|

eb:-------------------------------|
Bb:-------------------------------|
Gb:-------------------------------|
Db:-------------------------------|
Ab:-3-3-3-3--------5-5-5-5--------|
Eb:-1-1-1-1-0-1-0--3-3-3-3--1-3-1-|

                   x2
eb:-----------------|
Bb:-----------------|
Gb:-----------------|
Db:-7-7-7-7-7--10-5-|
Ab:-5-5-5-5-5--8--3-|
Eb:-0-0-0-0-0--0--0-|

eb:-------------------------------|
Bb:-------------------------------|
Gb:-------------------------------|
Db:-------------------------------|
Ab:-3-3-3-3--------5-5-5-5--------|
Eb:-1-1-1-1-0-1-0--3-3-3-3--1-3-1-|

eb:-----------------|
Bb:-----------------|
Gb:-----------------|
Db:-7-7-7-7-7--10-5-|
Ab:-5-5-5-5-5--8--3-|
Eb:-0-0-0-0-0--0--0-|

eb:--------------|
Bb:--------------|
Gb:--------------|
Db:--------------|
Ab:-3------------|
Eb:---5-4--1-3-1-|

   solo
eb:-12b-12b-12b---------------------------------------15/17-17bp14--------|
Bb:-15b-15b-15b--15-12h15p12---------------------------------------17-17b-|
Gb:--------------------------14-12h14p12-----14-12~~----------------------|
Db:--------------------------------------14-------------------------------|
Ab:-----------------------------------------------------------------------|
Eb:-----------------------------------------------------------------------|

eb:-----------------------------------------------------------------------|
Bb:-14b-------12------12b-12b-12b~~~~---12b-12b-12b~~~~---12b-12b-12b~~~~-|
Gb:-14bp12----12------12b-12b-12b~~~~---12b-12b-12b~~~~---12b-12b-12b~~~~-|
Db:--------14----14\------------------------------------------------------|
Ab:-----------------------------------------------------------------------|
Eb:-----------------------------------------------------------------------|

eb:------------------------------------------------------------|
Bb:-10h13p10h13p10h13p10h13p10h13p10h13p10-13\-----------------|
Gb:------------------------------------------------------------|
Db:------------------------------------------------------------|
Ab:------------------------------------------------------------|
Eb:------------------------------------------------------------|


   verse
eb:-----------------|
Bb:-----------------|
Gb:-----------------|
Db:-7-7-7-7-7--10-5-|
Ab:-5-5-5-5-5--8--3-|
Eb:-0-0-0-0-0--0--0-|

eb:-------------------------------|
Bb:-------------------------------|
Gb:-------------------------------|
Db:-------------------------------|
Ab:-3-3-3-3--------5-5-5-5--------|
Eb:-1-1-1-1-0-1-0--3-3-3-3--1-3-1-|

                   x2
eb:-----------------|
Bb:-----------------|
Gb:-----------------|
Db:-7-7-7-7-7--10-5-|
Ab:-5-5-5-5-5--8--3-|
Eb:-0-0-0-0-0--0--0-|

eb:-------------------------------|
Bb:-------------------------------|
Gb:-------------------------------|
Db:-------------------------------|
Ab:-3-3-3-3--------5-5-5-5--------|
Eb:-1-1-1-1-0-1-0--3-3-3-3--1-3-1-|

eb:-----------------|
Bb:-----------------|
Gb:-----------------|
Db:-7-7-7-7-7--10-5-|
Ab:-5-5-5-5-5--8--3-|
Eb:-0-0-0-0-0--0--0-|

eb:-----------------|
Bb:-----------------|
Gb:-----------------|
Db:-5-------------7-|
Ab:-3-7-6--3-5-3--5-|
Eb:---5-4--1-3-1--0-|



hillo son mex

17/08/11
            
Submit corrections

comments powered by Disqus
↑ Back to top | Zeke Tabs for Haybailer. Lyrics for acoustic guitar and electric guitar. Tablatures and chords are parodies/interpretations of the original songs. You may use it for private study, scholarship, research or language learning purposes only