» » »

Zeke, Hate Tabs (ver.1)

Artists:  A B C D E F G H I J K L M N O P Q R S T U V W X Y Z # 

Hate Tabs (ver.1)

Zeke Tabs
 Rating:
4/5 (4 votes)
Hate lessons Tabs too difficult? Try these video lessons and learn fast
                hate


zeke






e:---------------------|
B:---------------------|
G:---------------------|
D:---------------------|
A:-9-9-9-9-9-9-9--7--5-|
E:-7-7-7-7-7-7-7--5--3-|

e:-------------------------------|
B:-------------------------------|
G:-------------------------------|
D:-4-4-4-4-4--7-7-7-7--9-9-9-9-9-|
A:-2-2-2-2-2--5-5-5-5--7-7-7-7-7-|
E:-------------------------------|

e:-------------------------------|
B:-------------------------------|
G:-------------------------------|
D:-4-4-4-4-4--7-7-7-7------------|
A:-2-2-2-2-2--5-5-5-5--5-5-5-5-5-|
E:---------------------3-3-3-3-3-|

e:-------------------------------|
B:-------------------------------|
G:-------------------------------|
D:-4-4-4-4-4--7-7-7-7--9-9-9-9-9-|
A:-2-2-2-2-2--5-5-5-5--7-7-7-7-7-|
E:-------------------------------|

e:-------------------------------|
B:-------------------------------|
G:-------------------------------|
D:-4-4-4-4-4--7-7-7-7------------|
A:-2-2-2-2-2--5-5-5-5--5-5-5-5-5-|
E:---------------------3-3-3-3-3-|

e:---------------------|
B:---------------------|
G:---------------------|
D:---------------------|
A:-9-9-9-9-9-9-9--7--5-|
E:-7-7-7-7-7-7-7--5--3-|

e:-------------------------------|
B:-------------------------------|
G:-------------------------------|
D:-4-4-4-4-4--7-7-7-7--9-9-9-9-9-|
A:-2-2-2-2-2--5-5-5-5--7-7-7-7-7-|
E:-------------------------------|

e:-------------------------------|
B:-------------------------------|
G:-------------------------------|
D:-4-4-4-4-4--7-7-7-7------------|
A:-2-2-2-2-2--5-5-5-5--5-5-5-5-5-|
E:---------------------3-3-3-3-3-|

e:-------------------------------|
B:-------------------------------|
G:-------------------------------|
D:-4-4-4-4-4--7-7-7-7--9-9-9-9-9-|
A:-2-2-2-2-2--5-5-5-5--7-7-7-7-7-|
E:-------------------------------|

e:-------------------------------|
B:-------------------------------|
G:-------------------------------|
D:-4-4-4-4-4--7-7-7-7------------|
A:-2-2-2-2-2--5-5-5-5--5-5-5-5-5-|
E:---------------------3-3-3-3-3-|

e:---------------------|
B:---------------------|
G:---------------------|
D:---------------------|
A:-9-9-9-9-9-9-9--7--5-|
E:-7-7-7-7-7-7-7--5--3-|

e:------------------------|
B:------------------------|
G:------------------------|
D:------------------------|
A:-9/---------------------|
E:-7/---------------------|
            
Submit corrections

comments powered by Disqus
↑ Back to top | Zeke Tabs for Hate. Lyrics for acoustic guitar and electric guitar. Tablatures and chords are parodies/interpretations of the original songs. You may use it for private study, scholarship, research or language learning purposes only