» » »

Zeke, Goggle Boy Tabs (ver.1)

Artists:  A B C D E F G H I J K L M N O P Q R S T U V W X Y Z # 

Goggle Boy Tabs (ver.1)

Zeke Tabs
Rating:
0/5 (0 votes)
Goggle Boy lessons Tabs too difficult? Try these video lessons and learn fast
                goggle boy


zeke






e:------------------------|
B:------------------------|
G:------------------------|
D:------------------------|
A:-7-7-10-10--7-7--12-12--|
E:-5-5-8--8---5-5--10-10--|

e:-----------------------------------------|
B:-----------------------------------------|
G:-----------------------------------------|
D:-----------------------------------------|
A:-7-7-7--10--7-7-7--10--7-7-7--10--12-12--|
E:-5-5-5--8---5-5-5--8---5-5-5--8---10-10--|

verse
e:------------------------|
B:------------------------|
G:------------------------|
D:------------------------|
A:-7-7-10-10--7-7--12-12--|
E:-5-5-8--8---5-5--10-10--|

e:---------------|
B:---------------|
G:---------------|
D:---------------|
A:-5-5-5-5-5-5-5-|
E:-3-3-3-3-3-3-3-|

e:------------------------|
B:------------------------|
G:------------------------|
D:------------------------|
A:-7-7-10-10--7-7--12-12--|
E:-5-5-8--8---5-5--10-10--|

e:-------------------------|
B:-------------------------|
G:-------------------------|
D:-------------------------|
A:-5-5-5-5-5-5-5-3-3-3-3-3-|
E:-3-3-3-3-3-3-3-1-1-1-1-1-|

its goggle boy
e:----------------------|
B:----------------------|
G:----------------------|
D:----------------------|
A:-7-7-7-7-7-7-12-10-12-|
E:-5-5-5-5-5-5-10-8--10-|

e:------------------------|
B:------------------------|
G:------------------------|
D:------------------------|
A:-2-2-2-2-2-2-2-2-2--7---|
E:-0-0-0-0-0-0-0-0-0--5---|

e:------------------------|
B:------------------------|
G:------------------------|
D:------------------------|
A:-7-7-10-10--7-7--12-12--|
E:-5-5-8--8---5-5--10-10--|

e:-----------------------------------------|
B:-----------------------------------------|
G:-----------------------------------------|
D:-----------------------------------------|
A:-7-7-7--10--7-7-7--10--7-7-7--10--12-12--|
E:-5-5-5--8---5-5-5--8---5-5-5--8---10-10--|

verse
e:------------------------|
B:------------------------|
G:------------------------|
D:------------------------|
A:-7-7-10-10--7-7--12-12--|
E:-5-5-8--8---5-5--10-10--|

e:---------------|
B:---------------|
G:---------------|
D:---------------|
A:-5-5-5-5-5-5-5-|
E:-3-3-3-3-3-3-3-|

e:------------------------|
B:------------------------|
G:------------------------|
D:------------------------|
A:-7-7-10-10--7-7--12-12--|
E:-5-5-8--8---5-5--10-10--|

e:-------------------------|
B:-------------------------|
G:-------------------------|
D:-------------------------|
A:-5-5-5-5-5-5-5-4-3-3-3-3-|
E:-3-3-3-3-3-3-3-2-1-1-1-1-|

its goggle boy
e:----------------------|
B:----------------------|
G:----------------------|
D:----------------------|
A:-7-7-7-7-7-7-12-10-12-|
E:-5-5-5-5-5-5-10-8--10-|


:-----------------------------|
:-----------------------------|
:-----------------------------|
:-9-9-9-9-9-9-9-9-9--14-------|
:-7-7-7-7-7-7-7-7-7--12-------|
:-----------------------------|
            
Submit corrections

comments powered by Disqus
↑ Back to top | Zeke Tabs for Goggle Boy. Lyrics for acoustic guitar and electric guitar. Tablatures and chords are parodies/interpretations of the original songs. You may use it for private study, scholarship, research or language learning purposes only