» » »

Zeke, Galaxy 5 Tabs (ver.1)

Artists:  A B C D E F G H I J K L M N O P Q R S T U V W X Y Z # 

Galaxy 5 Tabs (ver.1)

Zeke Tabs
Rating:
0/5 (0 votes)
Galaxy 5 lessons Tabs too difficult? Try these video lessons and learn fast
                "(0)


zeke







eb:-------------------------------------------------|
Bb:-------------------------------------------------|
Gb:-------------------------------------------------|
Db:-------------------------------9-9-9-9-9-9-8-7-5-|
Ab:--7-7-7-7-7-7-7-7-7-7-7-7-7-7--7-7-7-7-7-7-6-5-3-|
Eb:--5-5-5-5-5-5-5-5-5-5-5-5-5-5--------------------|

  verse
eb:----------------------------------|
Bb:----------------------------------|
Gb:----------------------------------|
Db:----------------------------------|
Ab:--7-7-7-7-7-7-7-7-7-7-7-7-7-7-7-7-|
Eb:--5-5-5-5-5-5-5-5-5-5-5-5-5-5-5-5-|

alright!                 
:-------------------------------------------------------|
:-------------------------------------------------------|
:-------------------------------------------------------|
:--7-7-7-7-7-7-7-7-7-7-7-7-7-7-7------------------------|
:--5-5-5-5-5-5-5-5-5-5-5-5-5-5-5--7-7-7-7-7--10--12--10-|
:---------------------------------5-5-5-5-5--8---10--8--|


:---------------------------------------|
:---------------------------------------|
:---------------------------------------|
:--7-7-7-7-7-7-7------------------------|
:--5-5-5-5-5-5-5--7-7-7-7-7--10--12--10-|
:-----------------5-5-5-5-5--8---10--8--|

                              pick slide
eb:-----------------------------------------|
Bb:-----------------------------------------|
Gb:-----------------------------------------|
Db:--9-9-9-9-9-9-9-9-9-9--------------------|
Ab:--7-7-7-7-7-7-7-7-7-7--12--X/------------|
Eb:-----------------------10--X/------------|

eb:-------------------------------------------------|
Bb:-------------------------------------------------|
Gb:-------------------------------------------------|
Db:-------------------------------9-9-9-9-9-9-8-7-5-|
Ab:--7-7-7-7-7-7-7-7-7-7-7-7-7-7--7-7-7-7-7-7-6-5-3-|
Eb:--5-5-5-5-5-5-5-5-5-5-5-5-5-5--------------------|

  verse
eb:----------------------------------|
Bb:----------------------------------|
Gb:----------------------------------|
Db:----------------------------------|
Ab:--7-7-7-7-7-7-7-7-7-7-7-7-7-7-7-7-|
Eb:--5-5-5-5-5-5-5-5-5-5-5-5-5-5-5-5-|

alright!                 
:-------------------------------------------------------|
:-------------------------------------------------------|
:-------------------------------------------------------|
:--7-7-7-7-7-7-7-7-7-7-7-7-7-7-7------------------------|
:--5-5-5-5-5-5-5-5-5-5-5-5-5-5-5--7-7-7-7-7--10--12--10-|
:---------------------------------5-5-5-5-5--8---10--8--|


:---------------------------------------|
:---------------------------------------|
:---------------------------------------|
:--7-7-7-7-7-7-7------------------------|
:--5-5-5-5-5-5-5--7-7-7-7-7--10--12--10-|
:-----------------5-5-5-5-5--8---10--8--|

                              pick slide
eb:-----------------------------------------|
Bb:-----------------------------------------|
Gb:-----------------------------------------|
Db:--9-9-9-9-9-9-9-9-9-9--------------------|
Ab:--7-7-7-7-7-7-7-7-7-7--12--X/------------|
Eb:-----------------------10--X/------------|

eb:-------------------------------------------------|
Bb:-------------------------------------------------|
Gb:-------------------------------------------------|
Db:-------------------------------9-9-9-9-9-9-8-7-5-|
Ab:--7-7-7-7-7-7-7-7-7-7-7-7-7-7--7-7-7-7-7-7-6-5-3-|
Eb:--5-5-5-5-5-5-5-5-5-5-5-5-5-5--------------------|

                             pick slide
:-------------------------------------|
:-------------------------------------|
:-------------------------------------|
:-------------------------------------|
:---7-7-7-7-7--10--12--10---x/--------|
:---5-5-5-5-5--8---10--8----X/--------|

:-------------------------|
:-------------------------|
:-------------------------|
:-------------------------|
:---7-7-7-7-7--10--12--10-|
:---5-5-5-5-5--8---10--8--|

  solo

eb:---------------------------------------------------------------------------------------|
Bb:-7b--7-5--7-5--7b--7-5--7-5--7b-7-5--7b-7-5--7b-7-5--7b-7-5-------14-16-14h16p14-------|
Gb:-7b--7-5--7-5--7b--7-5--7-5--7b-7-5--7b-7-5--7b-7-5--7b-7-5---16b----------------17-14-|
Db:---------------------------------------------------------------------------------------|
Ab:---------------------------------------------------------------------------------------|
Eb:---------------------------------------------------------------------------------------|

                
:------------------------------------------------------------------------------------------|
:------------------------------------------------------------------------------------------|
:-h16p14-14-16-14----14-16p14-16p14------14--16--14------14--16--16b-16b-16b-16b-14-16-16b-|
:-----------------16-----------------16--------------16------------------------------------|
:------------------------------------------------------------------------------------------|
:------------------------------------------------------------------------------------------|


:-----------------|
:-----------------|
:-16--14--16~~~~--|
:-----------------|
:-----------------|
:-----------------|

 verse
eb:----------------------------------|
Bb:----------------------------------|
Gb:----------------------------------|
Db:----------------------------------|
Ab:--7-7-7-7-7-7-7-7-7-7-7-7-7-7-7-7-|
Eb:--5-5-5-5-5-5-5-5-5-5-5-5-5-5-5-5-|

alright!                 
:-------------------------------------------------------|
:-------------------------------------------------------|
:-------------------------------------------------------|
:--7-7-7-7-7-7-7-7-7-7-7-7-7-7-7------------------------|
:--5-5-5-5-5-5-5-5-5-5-5-5-5-5-5--7-7-7-7-7--10--12--10-|
:---------------------------------5-5-5-5-5--8---10--8--|


:---------------------------------------|
:---------------------------------------|
:---------------------------------------|
:--7-7-7-7-7-7-7------------------------|
:--5-5-5-5-5-5-5--7-7-7-7-7--10--12--10-|
:-----------------5-5-5-5-5--8---10--8--|

                              pick slide
eb:-----------------------------------------|
Bb:-----------------------------------------|
Gb:-----------------------------------------|
Db:--9-9-9-9-9-9-9-9-9-9--------------------|
Ab:--7-7-7-7-7-7-7-7-7-7--12--X/------------|
Eb:-----------------------10--X/------------|

:-------------------------|
:-------------------------|
:-------------------------|
:-------------------------|
:---7-7-7-7-7--10--12--10-|
:---5-5-5-5-5--8---10--8--|
"            

comments powered by Disqus
↑ Back to top | Zeke Tabs for Galaxy 5. Lyrics for acoustic guitar and electric guitar. Tablatures and chords are parodies/interpretations of the original songs. You may use it for private study, scholarship, research or language learning purposes only