» » »

Zeke, Fucked Up City Tabs (ver.2)

Artists:  A B C D E F G H I J K L M N O P Q R S T U V W X Y Z # 

Fucked Up City Tabs (ver.2)

Zeke Tabs
 Rating:
4/5 (4 votes)
Fucked Up City lessons Tabs too difficult? Try these video lessons and learn fast
1
                ***ed up city


zeke






e:-------------------|
B:-------------------|
G:-------------------|
D:-------------------|
A:-6-6-6-6-6-6-9-11--|
E:-4-4-4-4-4-4-7-9---|

verse
e:-------------------|
B:-------------------|
G:-------------------|
D:-------------------|
A:-6-6-6-6-6-6-9-11--|
E:-4-4-4-4-4-4-7-9---|


e:----------------------------------------------------------------|
B:----------------------------------------------------------------|
G:----------------------------------------------------------------|
D:-8--6--8--6-8-6--8--6--8--6-8-6--8--6--8--6-8-6--8--6--8--6-8-6-|
A:-6--4--6--4-6-4--6--4--6--4-6-4--6--4--6--4-6-4--6--4--6--4-6-4-|
E:----------------------------------------------------------------|

e:-------------------|
B:-------------------|
G:-------------------|
D:-------------------|
A:-6-6-6-6-6-6-9-11--|
E:-4-4-4-4-4-4-7-9---|

e:------------------------------------|
B:------------------------------------|
G:------------------------------------|
D:------------------------------------|
A:-6-9-11-12-11-6-----6-9-11-12-11-6--|
E:-4-7-9--10-9--4-----4-7-9--10-9--4--|


:----------------------------------|
:----------------------------------|
:----------------------------------|
:----------------------------------|
:-4-4-4-4-4-4-4-4-4-4-4-4-4-4-4-4--|
:-2-2-2-2-2-2-2-2-2-2-2-2-2-2-2-2--|


e:------------------------------------------------------------------------------|
B:-6B-6B-4--6p4-6p4----6B-6B-4--6p4-6p4----6B-6B-4--6p4-6p4----6B-6B-4--6p4-6p4-|
G:-6B-6B-4--6p4-6p4----6B-6B-4--6p4-6p4----6B-6B-4--6p4-6p4----6B-6B-4--6p4-6p4-|
D:------------------6--------------------6-------------------6------------------|
A:------------------------------------------------------------------------------|
E:------------------------------------------------------------------------------|


e:-------------------|
B:-------------------|
G:-------------------|
D:-------------------|
A:-6-6-6-6-6-6-9-11--|
E:-4-4-4-4-4-4-7-9---|

e:--------|
B:--------|
G:--------|
D:--------|
A:-6-6-6--|
E:-4-4-4--|


e:------------|
B:------------|
G:------------|
D:------------|
A-------------|
E:-4/22\------|

e:-------------------|
B:-------------------|
G:-------------------|
D:-------------------|
A:-6-6-6-6-6-6-9-11--|
E:-4-4-4-4-4-4-7-9---|

e:------------------------------------------------------------------------------|
B:-6B-6B-4--6p4-6p4----6B-6B-4--6p4-6p4----6B-6B-4--6p4-6p4----6B-6B-4--6p4-6p4-|
G:-6B-6B-4--6p4-6p4----6B-6B-4--6p4-6p4----6B-6B-4--6p4-6p4----6B-6B-4--6p4-6p4-|
D:------------------6--------------------6-------------------6------------------|
A:------------------------------------------------------------------------------|
E:------------------------------------------------------------------------------|

:------------------|
:------------------|
:------------------|
:------------------|
:--6--4--6\--------|
:--4--2--4\--------|
            
Submit corrections

comments powered by Disqus
↑ Back to top | Zeke Tabs for Fucked Up City. Lyrics for acoustic guitar and electric guitar. 1 Tablatures and chords are parodies/interpretations of the original songs. You may use it for private study, scholarship, research or language learning purposes only