» » »

Zeke, Flat Tracker Tabs (ver.1)

Artists:  A B C D E F G H I J K L M N O P Q R S T U V W X Y Z # 

Flat Tracker Tabs (ver.1)

Zeke Tabs
 Rating:
4/5 (4 votes)
Flat Tracker lessons Tabs too difficult? Try these video lessons and learn fast
                flat tracker


zeke






eb:---------------------------|
Bb:---------------------------|
Gb:-2-2-2-2-2-5-7-7-7-7-7-7-7-|
Db:-2-2-2-2-2-5-7-7-7-7-7-7-7-|
Ab:-0-0-0-0-0-3-5-5-5-5-5-5-5-|
Eb:---------------------------|

eb:--------------|
Bb:--------------|
Gb:-5--6--7------|
Db:-5--6--7--5---|
Ab:-3--4--5--5---|
Eb:----------3---|

eb:--------------|
Bb:--------------|
Gb:--------------|
Db:-7--7---5-7---|
Ab:-7--7---5-7---|
Eb:-5--5---3-5---|

:-----------------|
:-----------------|
:-----------------|
:-7-7-7-7-7-7-7-7-|
:-7-7-7-7-7-7-7-7-|
:-5-5-5-5-5-5-5-5-|

eb:--------------|
Bb:--------------|
Gb:-5--6--7------|
Db:-5--6--7--5---|
Ab:-3--4--5--5---|
Eb:----------3---|

eb:---------------------------|
Bb:---------------------------|
Gb:-2-2-2-2-2-5-7-7-7-7-7-7-7-|
Db:-2-2-2-2-2-5-7-7-7-7-7-7-7-|
Ab:-0-0-0-0-0-3-5-5-5-5-5-5-5-|
Eb:---------------------------|

eb:--------------|
Bb:--------------|
Gb:-5--6--7------|
Db:-5--6--7--5---|
Ab:-3--4--5--5---|
Eb:----------3---|

eb:--------------|
Bb:--------------|
Gb:--------------|
Db:-7--7---5-7---|
Ab:-7--7---5-7---|
Eb:-5--5---3-5---|

:-----------------|
:-----------------|
:-----------------|
:-7-7-7-7-7-7-7-7-|
:-7-7-7-7-7-7-7-7-|
:-5-5-5-5-5-5-5-5-|

eb:--------------|
Bb:--------------|
Gb:-5--6--7------|
Db:-5--6--7--5---|
Ab:-3--4--5--5---|
Eb:----------3---|

eb:---------------------------|
Bb:---------------------------|
Gb:-2-2-2-2-2-5-7-7-7-7-7-7-7-|
Db:-2-2-2-2-2-5-7-7-7-7-7-7-7-|
Ab:-0-0-0-0-0-3-5-5-5-5-5-5-5-|
Eb:---------------------------|

eb:--------------|
Bb:--------------|
Gb:-5--6--7------|
Db:-5--6--7--5---|
Ab:-3--4--5--5---|
Eb:----------3---|

eb:---------------------------|
Bb:---------------------------|
Gb:-2-2-2-2-2-5-7-7-7-7-7-7-7-|
Db:-2-2-2-2-2-5-7-7-7-7-7-7-7-|
Ab:-0-0-0-0-0-3-5-5-5-5-5-5-5-|
Eb:---------------------------|

eb:--------------|
Bb:--------------|
Gb:-5--6--7------|
Db:-5--6--7--5---|
Ab:-3--4--5--5---|
Eb:----------3---|

solo
eb:-12-12-12-12-12-12-12-12--9-10-11-|
Bb:-12-12-12-12-12-12-12-12--9-10-11-|
Gb:----------------------------------|
Db:----------------------------------|
Ab:----------------------------------|
Eb:----------------------------------|

eb:------------------------|
Bb:-14b----14--14b----14---|
Gb:-14b-12-14--14b-12-14---|
Db:------------------------|
Ab:------------------------|
Eb:------------------------|

:-------------------------------|
:-17-17-17-16-16-16-15-15-15-13-|
:-16-16-16-15-15-15-14-14-14-12-|
:-------------------------------|
:-------------------------------|
:-------------------------------|

eb:---------------------------|
Bb:-13-13-13-13-13--12-11-10--|
Gb:-12-12-12-12-12--11-10-9---|
Db:---------------------------|
Ab:---------------------------|
Eb:---------------------------|

eb:--------------|
Bb:--------------|
Gb:--------------|
Db:-7--7---5-7---|
Ab:-7--7---5-7---|
Eb:-5--5---3-5---|

:-----------------|
:-----------------|
:-----------------|
:-7-7-7-7-7-7-7-7-|
:-7-7-7-7-7-7-7-7-|
:-5-5-5-5-5-5-5-5-|

eb:--------------|
Bb:--------------|
Gb:-5--6--7------|
Db:-5--6--7--5---|
Ab:-3--4--5--5---|
Eb:----------3---|

eb:---------------------------|
Bb:---------------------------|
Gb:-2-2-2-2-2-5-7-7-7-7-7-7-7-|
Db:-2-2-2-2-2-5-7-7-7-7-7-7-7-|
Ab:-0-0-0-0-0-3-5-5-5-5-5-5-5-|
Eb:---------------------------|

eb:--------------|
Bb:--------------|
Gb:-5--6--7------|
Db:-5--6--7--5---|
Ab:-3--4--5--5---|
Eb:----------3---|

eb:---------------------------|
Bb:---------------------------|
Gb:-2-2-2-2-2-5-7-7-7-7-7-7-7-|
Db:-2-2-2-2-2-5-7-7-7-7-7-7-7-|
Ab:-0-0-0-0-0-3-5-5-5-5-5-5-5-|
Eb:---------------------------|

eb:--------------|
Bb:--------------|
Gb:-5--6--7------|
Db:-5--6--7--5---|
Ab:-3--4--5--5---|
Eb:----------3---|

eb:----------------------------------------------------------|
Bb:----------------------------------------------------------|
Gb:-2-----2-----2------2-2-2-2-2-2-2-2-2-2-2-2-2-2-2-2-2-2-2-|
Db:-2-----2-----2------2-2-2-2-2-2-2-2-2-2-2-2-2-2-2-2-2-2-2-|
Ab:-0---0-0---0-0----0-0-0-0-0-0-0-0-0-0-0-0-0-0-0-0-0-0-0-0-|
Eb:----------------------------------------------------------|

eb:-----------|
Bb:-----------|
Gb:--2--------|
Db:--2--------|
Ab:--0--------|
Eb:-----------|
            
Submit corrections

comments powered by Disqus
↑ Back to top | Zeke Tabs for Flat Tracker. Lyrics for acoustic guitar and electric guitar. Tablatures and chords are parodies/interpretations of the original songs. You may use it for private study, scholarship, research or language learning purposes only