» » »

Fight In The Storeroom Tabs (ver.1)

Artists:  A B C D E F G H I J K L M N O P Q R S T U V W X Y Z # 

Fight In The Storeroom Tabs (ver.1)

Zeke
Rating:
0/5 (0 votes)

Hard to play? Try these video lessons and learn fast.
                fight in the storeroom


zeke






eb:---------|
Bb:---------|
Gb:---------|
Db:-4--9--7-|
Ab:-2--7--5-|
Eb:---------|

eb:-----------|
Bb:-----------|
Gb:-----------|
Db:-4-4--9--7-|
Ab:-2-2--7--5-|
Eb:-----------|

verse
eb:-----------|
Bb:-----------|
Gb:-----------|
Db:-4-4--9--7-|
Ab:-2-2--7--5-|
Eb:-----------|

eb:----------|
Bb:----------|
Gb:----------|
Db:-9--7-7-7-|
Ab:-7--5-5-5-|
Eb:----------|

eb:-----------|
Bb:-----------|
Gb:-----------|
Db:-4-4--9--7-|
Ab:-2-2--7--5-|
Eb:-----------|

eb:-----------------------------|
Bb:-----------------------------|
Gb:-----------------------------|
Db:-9--9-9-9--10-10-10-10-10-12-|
Ab:-7--7-7-7--8--8--8--8--8--10-|
Eb:-----------------------------|

eb:-----------|
Bb:-----------|
Gb:-----------|
Db:-4-4--9--7-|
Ab:-2-2--7--5-|
Eb:-----------|

eb:------------------------|
Bb:------------------------|
Gb:------------------------|
Db:-4----------------------|
Ab:-2----------------------|
Eb:------------------------|

eb:-----------|
Bb:-----------|
Gb:-----------|
Db:-4-4--9--7-|
Ab:-2-2--7--5-|
Eb:-----------|

eb:----------|
Bb:----------|
Gb:----------|
Db:-9--7-7-7-|
Ab:-7--5-5-5-|
Eb:----------|

eb:-----------|
Bb:-----------|
Gb:-----------|
Db:-4-4--9--7-|
Ab:-2-2--7--5-|
Eb:-----------|

eb:-----------------------------|
Bb:-----------------------------|
Gb:-----------------------------|
Db:-9--9-9-9--10-10-10-10-10-12-|
Ab:-7--7-7-7--8--8--8--8--8--10-|
Eb:-----------------------------|

eb:-----------|
Bb:-----------|
Gb:-----------|
Db:-4-4--9--7-|
Ab:-2-2--7--5-|
Eb:-----------|

eb:------------------------|
Bb:------------------------|
Gb:------------------------|
Db:-4----------------------|
Ab:-2----------------------|
Eb:------------------------|


eb:-----------|
Bb:-----------|
Gb:-----------|
Db:-4-4--9--7-|
Ab:-2-2--7--5-|
Eb:-----------|

eb:------------------------|
Bb:------------------------|
Gb:------------------------|
Db:-4----------------------|
Ab:-2----------------------|
Eb:------------------------|
            
Hard to play? Try these video lessons and learn fast. | Correct




comments powered by Disqus
↑ Back to top | Tablatures and chords are parodies/interpretations of the original songs. You may use it for private study, scholarship, research or language learning purposes only