>
 >
Eyes Of Satan

Eyes Of Satan Guitar Tabs

Zeke - Eyes Of Satan chords, tabs, tablatures, lyrics

Guitar lessons | Add/correct | Request | Top 50 tabs Artists:  A B C D E F G H I J K L M N O P Q R S T U V W X Y Z 0-9

Eyes Of Satan Guitar Tabs – Zeke

CD, Sheet music, Poster

Do you like Eyes Of Satan? Share with your friends now
Tabs
eyes of satan

zeke






eb:----------------------------------------------|
Bb:----------------------------------------------|
Gb:----------------------------------------------|
Db:-6-6--9-9--6-6------7----6-6--9-9--6-6--9-9-9-|
Ab:-4-4--7-7--4-4--7-7-7-7--4-4--7-7--4-4--7-7-7-|
Eb:----------------5-5-5-5-----------------------|



eb:---------------------------------------------------------------------------|
Bb:---------------------------------------------------------------------------|
Gb:---------------------------------------------------------------------------|
Db:-11-11-11-11-11-11--6-6-6-6-6-6-6-6--2-2-2-2-2-2--4-4-4-4-4-4--6-6-6-6-6-6-|
Ab:-9--9--9--9--9--9---4-4-4-4-4-4-4-4--0-0-0-0-0-0--2-2-2-2-2-2--4-4-4-4-4-4-|
Eb:---------------------------------------------------------------------------|



eb:-----------------|
Bb:-----------------|
Gb:-----------------|
Db:-----------------|
Ab:-4-2---2---------|
Eb:-----4---4-3-2-0-|



eb:----------------------------------------------|
Bb:----------------------------------------------|
Gb:----------------------------------------------|
Db:-6-6--9-9--6-6------7----6-6--9-9--6-6--9-9-9-|
Ab:-4-4--7-7--4-4--7-7-7-7--4-4--7-7--4-4--7-7-7-|
Eb:----------------5-5-5-5-----------------------|



eb:---------------------------------------------------------------------------|
Bb:---------------------------------------------------------------------------|
Gb:---------------------------------------------------------------------------|
Db:-11-11-11-11-11-11--6-6-6-6-6-6-6-6--2-2-2-2-2-2--4-4-4-4-4-4--6-6-6-6-6-6-|
Ab:-9--9--9--9--9--9---4-4-4-4-4-4-4-4--0-0-0-0-0-0--2-2-2-2-2-2--4-4-4-4-4-4-|
Eb:---------------------------------------------------------------------------|





eb:-----------------------------------------------------------------------------|
Bb:-----------------------------------------------------------------------------|
Gb:-----------------------------------------------------------------------------|
Db:-6-6-6-6-6-6--9--11-6-6-6-6-6-6--9--11-6-6-6-6-6-6--9--11-6-6-6-6-6-6--9--11-|
Ab:-4-4-4-4-4-4--7--9--4-4-4-4-4-4--7--9--4-4-4-4-4-4--7--9--4-4-4-4-4-4--7--9--|
Eb:-----------------------------------------------------------------------------|



   gt1
eb:------------------------------------------------------------------|
Bb:------------------------------------------------------------------|
Gb:------------------------------------------------------------------|
Db:-6-----------------------6------------------6---------------------|
Ab:-4--2-4p2-4p2-4p2-4p2----4--4p2h4p2h4p2h4p2-4--2-4p2-4p2-4p2-4p2--|
Eb:-----------------------4------------------------------------------|

   gt2
eb:--------------------------------------------------------------------------------|
Bb:--------------------------------------------------------------------------------|
Gb:--------------------------------------------------------------------------------|
Db:-6-----------------------6------------------6--------------------6----12--11--9-|
Ab:-4---------------------6-4------------------4--------------------4----10--9---7-|
Eb:-----------------------4--------------------------------------------------------|



   solo

eb:-14b-14-15-14-12-14-12----12--------------------------------------------------|
Bb:-----------------------15----15-14-12-14-12-----------------------------------|
Gb:--------------------------------------------14-12h14p12-----------------12-14-|
Db:--------------------------------------------------------14-12h14p12-14--------|
Ab:------------------------------------------------------------------------------|
Eb:------------------------------------------------------------------------------|



                              2 times                    2 times

eb:------------------|--9b---7b--5b---------------|--9b--11b-12b-14b-14b-14b-|
Bb:--------15-13b~~~-|-12b--10b--8b--8b-8-6---6---|-12b--14b-15b-17b-17b-17b-|
Gb:-12-14------------|----------------------7---7-|--------------------------|
Db:------------------|----------------------------|--------------------------|
Ab:------------------|----------------------------|--------------------------|
Eb:------------------|----------------------------|--------------------------|




   gt1
eb:------------------------------------------------------------------|
Bb:------------------------------------------------------------------|
Gb:------------------------------------------------------------------|
Db:-6-----------------------6------------------6---------------------|
Ab:-4--2-4p2-4p2-4p2-4p2----4--4p2h4p2h4p2h4p2-4--2-4p2-4p2-4p2-4p2--|
Eb:-----------------------4------------------------------------------|

   gt2
eb:--------------------------------------------------------------------------------|
Bb:--------------------------------------------------------------------------------|
Gb:--------------------------------------------------------------------------------|
Db:-6-----------------------6------------------6--------------------6----12--11--9-|
Ab:-4---------------------6-4------------------4--------------------4----10--9---7-|
Eb:-----------------------4--------------------------------------------------------|



eb:----------------------------------------------|
Bb:----------------------------------------------|
Gb:----------------------------------------------|
Db:-6-6--9-9--6-6------7----6-6--9-9--6-6--9-9-9-|
Ab:-4-4--7-7--4-4--7-7-7-7--4-4--7-7--4-4--7-7-7-|
Eb:----------------5-5-5-5-----------------------|



eb:---------------------------------------------------------------------------|
Bb:---------------------------------------------------------------------------|
Gb:---------------------------------------------------------------------------|
Db:-11-11-11-11-11-11--6-6-6-6-6-6-6-6--2-2-2-2-2-2--4-4-4-4-4-4--6-6-6-6-6-6-|
Ab:-9--9--9--9--9--9---4-4-4-4-4-4-4-4--0-0-0-0-0-0--2-2-2-2-2-2--4-4-4-4-4-4-|
Eb:---------------------------------------------------------------------------|





eb:-----------------------------------------------------------------------------|
Bb:-----------------------------------------------------------------------------|
Gb:-----------------------------------------------------------------------------|
Db:-6-6-6-6-6-6--9--11-6-6-6-6-6-6--9--11-6-6-6-6-6-6--9--11-6-6-6-6-6-6--9--11-|
Ab:-4-4-4-4-4-4--7--9--4-4-4-4-4-4--7--9--4-4-4-4-4-4--7--9--4-4-4-4-4-4--7--9--|
Eb:-----------------------------------------------------------------------------|



eb:------------------------|
Bb:------------------------|
Gb:------------------------|
Db:-6-5-4------------------|
Ab:-4-3-2---4----5-6-7--2--|
Eb:-------0-2-0--3-4-5--0--|



hillo son mex


herson 2002


re tabbed 
17/08/11





Comments


Popular Zeke tabs & chords
Now You Die Bass Tabs
Telephat Boy Bass Tabs
302 Cubic Inch V-8 Powered Blues Tabs
Fallen Tabs
Fucked Up City Tabs
I Dont Give A Tabs
Razorblade Tabs
Revolution Tabs
Schmidt Value Pack Tabs
Twisted Tabs


Song lyrics



↑ Back to top | Tablatures and chords are parodies/interpretations of the original songs. You may use it for private study, scholarship, research or language learning purposes only
© 2014 AZChords.com Contact us | Privacy policy | DMCA | Add/correct tabs | Request tabs | Top 50 tabs