» » »

Drunk Tabs (ver.1)

Artists:  A B C D E F G H I J K L M N O P Q R S T U V W X Y Z # 

Drunk Tabs (ver.1)

Zeke
Rating:
0/5 (0 votes)

Hard to play? Try these video lessons and learn fast.
                drunk


zeke






eb:--------------------|
Bb:-----9-9b-----------|
Gb:-----9-9b-7h9p7---7-|
Db:----------------9---|
Ab:-7-9----------------|
Eb:-5-7----------------|

eb:---------------------------------------------------------|
Bb:---------------------------------------------------------|
Gb:---------------------------------------------------------|
Db:-4-4-4-4-4-4-4-4-4-4-4--9--4-4-4-4-4-4-4-4-4-4-4---------|
Ab:-2-2-2-2-2-2-2-2-2-2-2--7--2-2-2-2-2-2-2-2-2-2-2---------|
Eb:---------------------------------------------------------|

eb:-------------------------------------------------------------------------|
Bb:----------------------------------------9b-9-----9b-9-----9b-9-----------|
Gb:----------------------------------------9b-9bp7--9b-9bp7--9b-9bp7--------|
Db:-12-12-12-12-12-12-12--9-9-9-9-9--5-4-----------------------------9------|
Ab:-10-10-10-10-10-10-10--7-7-7-7-7--3-2------------------------------------|
Eb:-------------------------------------------------------------------------|

eb:---------------------------------------------------------------|
Bb:---------------------------------------------------------------|
Gb:---------------------------------------------------------------|
Db:-4-4-4-4-4-4-4-4-4-4-4--9--4-4-4-4-4-4-4-4-4-4-4---------------|
Ab:-2-2-2-2-2-2-2-2-2-2-2--7--2-2-2-2-2-2-2-2-2-2-2---7-5h7p5-----|
Eb:-----------------------------------------------------------7-7-|

eb:---------------------------------------|
Bb:---------------------------------------|
Gb:---------------------------------------|
Db:-12-12-12-12-12-12-12--9-9-9-9-9--5-4--|
Ab:-10-10-10-10-10-10-10--7-7-7-7-7--3-2--|
Eb:---------------------------------------|

eb:--------------------|
Bb:-----9-9b-----------|
Gb:-----9-9b-7h9p7---7-|
Db:----------------9---|
Ab:-7-9----------------|
Eb:-5-7----------------|
                                                 --------------
eb:---------------------------------------------/---------------------------|
Bb:----------------------------------------9bf-/9-9-9-9-9-9-9-9-------------|
Gb:----------------------------------------9bf/-9-9-9-9-9-9-9-9p7-----------|
Db:-12-12-12-12-12-12-12--9-9-9-9-9--5-4------------------------------------|
Ab:-10-10-10-10-10-10-10--7-7-7-7-7--3-2------------------------------------|
Eb:-------------------------------------------------------------------------|


solo
             repeat
:--------------------------------------------|
:-14b-14b--10b-10b--12b-12b-12b-12b-12b-12b--|
:-16b-16b--12b-12b--14b-14b-14b-14b-14b-14b--|
:--------------------------------------------|
:--------------------------------------------|
:--------------------------------------------|

:---------------------|
:-14b-14b--10b-10b----|
:-16b-16b--12b-12b----|
:---------------------|
:---------------------|
:---------------------|

eb:--------------------|
Bb:-----9-9b-----------|
Gb:-----9-9b-7h9p7---7-|
Db:----------------9---|
Ab:-7-9----------------|
Eb:-5-7----------------|

eb:---------------------------------------------------------|
Bb:---------------------------------------------------------|
Gb:---------------------------------------------------------|
Db:-4-4-4-4-4-4-4-4-4-4-4--9--4-4-4-4-4-4-4-4-4-4-4--7--9---|
Ab:-2-2-2-2-2-2-2-2-2-2-2--7--2-2-2-2-2-2-2-2-2-2-2--5--7---|
Eb:---------------------------------------------------------|

eb:-------------------------------------------------------------------------|
Bb:----------------------------------------9b-9-----9b-9-----9b-9-----------|
Gb:----------------------------------------9b-9bp7--9b-9bp7--9b-9bp7--------|
Db:-12-12-12-12-12-12-12--9-9-9-9-9--5-4-----------------------------9------|
Ab:-10-10-10-10-10-10-10--7-7-7-7-7--3-2------------------------------------|
Eb:-------------------------------------------------------------------------|

eb:---------------------------------------|
Bb:---------------------------------------|
Gb:---------------------------------------|
Db:-12-12-12-12-12-12-12--9-9-9-9-9--5-4--|
Ab:-10-10-10-10-10-10-10--7-7-7-7-7--3-2--|
Eb:---------------------------------------|
            
Hard to play? Try these video lessons and learn fast. | Correct




comments powered by Disqus
↑ Back to top | Tablatures and chords are parodies/interpretations of the original songs. You may use it for private study, scholarship, research or language learning purposes only