» » »

Donde Esta Tabs (ver.1)

Artists:  A B C D E F G H I J K L M N O P Q R S T U V W X Y Z # 

Donde Esta Tabs (ver.1)

Zeke
Rating:
0/5 (0 votes)

Tabs too difficult? Try these video lessons and learn fast.
                

tune 2 steps down
       
                                verse
Eb|--------------------------------------|
Bb|--------------------------------------|
F#|--------------------------------------|
C#|-/7-----/7~~~~~~~~-----7ah------------|
G#|-/7-----------------------------------|
C#|-/5-----------------------------------|

pick slide
Eb|----------------------------------------|
Bb|----------------------------------------|
F#|----------------------------------------|
C#|---------7-----10-10-10-10-10-10-10-----|
G#|-x/------7-----10-10-10-10-10-10-10-----|
C#|-x/------5-----8--8--8--8--8--8--8------|

Eb|------------------------------------|
Bb|------------------------------------|
F#|------------------------------------|
C#|-----7-----10-10-10-10-10-10-10-----|
G#|-----7-----10-10-10-10-10-10-10-----|
C#|-----5-----8--8--8--8--8--8--8------|


Eb|--------------------------|
Bb|--------------------------|
F#|--------------------------|
C#|-7-7--10-10--12-12--10-10-|
G#|-7-7--10-10--12-12--10-10-|
C#|-5-5--8--8---10-10--8--8--|

Eb|--------------------------------------|
Bb|--------------------------------------|
F#|--------------------------------------|
C#|-/7-----/7~~~~~~~~-----7ah------------|
G#|-/7-----------------------------------|
C#|-/5-----------------------------------|

pick slide
Eb|----------------------------------------|
Bb|----------------------------------------|
F#|----------------------------------------|
C#|---------7-----10-10-10-10-10-10-10-----|
G#|-x/------7-----10-10-10-10-10-10-10-----|
C#|-x/------5-----8--8--8--8--8--8--8------|

Eb|------------------------------------|
Bb|------------------------------------|
F#|------------------------------------|
C#|-----7-----10-10-10-10-10-10-10-----|
G#|-----7-----10-10-10-10-10-10-10-----|
C#|-----5-----8--8--8--8--8--8--8------|


Eb|--------------------------|
Bb|--------------------------|
F#|--------------------------|
C#|-7-7--10-10--12-12--10-10-|
G#|-7-7--10-10--12-12--10-10-|
C#|-5-5--8--8---10-10--8--8--|


Eb|--------------------------------------|
Bb|--------------------------------------|
F#|--------------------------------------|
C#|-/7-----/7~~~~~~~~-----7ah------------|
G#|-/7-----------------------------------|
C#|-/5-----------------------------------|


solo
pick slide
Eb|--------12-12-12-12-12-12-12-------5------5------5------5------5------5-|
Bb|--------14-14-14-14-14-14-14-----5------5------5------5------5------5---|
F#|------------------------------7b-----7b-----7b-----7b-----7b-----7b-----|
C#|------------------------------------------------------------------------|
G#|-x/---------------------------------------------------------------------|
C#|-x/---------------------------------------------------------------------|


Eb|-----------------------------------------------------------------------|
Bb|-7b-7----7b-7----7b-7----7b-7----7b-7---7b-7----7b-7----7b-7----7b-7---|
F#|-7b-7-5--7b-7-5--7b-7-5--7b-7-5--7b-7-5-7b-7-5--7b-7-5--7b-7-5--7b-7-5-|
C#|-----------------------------------------------------------------------|
G#|-----------------------------------------------------------------------|
C#|-----------------------------------------------------------------------|

Eb|------5------5------5---12-12-12-12-12-12-12-12-12--12----16-16-16-16-16-16-16-|
Bb|----5------5------5-----14-14-14-14-14-14-14-14-14--12/14-14-14-14-14-14-14-14-|
F#|-7b-----7b-----7b--------------------------------------------------------------|
C#|-------------------------------------------------------------------------------|
G#|-------------------------------------------------------------------------------|
C#|-------------------------------------------------------------------------------|

Eb|-16~~~--16~~~--16~~~--16~~~---16~~~--16~~~--|
Bb|-14~~~--14~~~--14~~~--14~~~---14~~~--14~~~--|
F#|--------------------------------------------|
C#|--------------------------------------------|
G#|--------------------------------------------|
C#|--------------------------------------------|

Eb|----------------------------------------------------------------------------------|
Bb|----------------------------------------------------------------------------------|
F#|----------------------------------------------------------------------------------|
C#|-7--5--7--5---7--5--7--5---7--5--7--5---7----5----7---5---7-7-7-7-7-7-7-7-7-7-7-7-|
G#|-7--5--7--5---7--5--7--5---7--5--7--5---7----5----7---5---7-7-7-7-7-7-7-7-7-7-7-7-|
C#|-5--3--5--3---5--3--5--3---5--3--5--3---5----3----5---3---5-5-5-5-5-5-5-5-5-5-5-5-|


Eb|----------------------------|
Bb|-14b~~~~~--14/12--12~~~~~~--|
F#|-14b~~~~~--14/12--12~~~~~~--|
C#|----------------------------|
G#|----------------------------|
C#|----------------------------|

Eb|------------|
Bb|------------|
F#|------------|
C#|---------7--|
G#|-x/------7--|
C#|-x/------5--|
            
Tabs too difficult? Try these video lessons and learn fast.




comments powered by Disqus
↑ Back to top | Tablatures and chords are parodies/interpretations of the original songs. You may use it for private study, scholarship, research or language learning purposes only