» » »

Zeke, Dogfight Tabs (ver.1)

Artists:  A B C D E F G H I J K L M N O P Q R S T U V W X Y Z # 

Dogfight Tabs (ver.1)

Zeke Tabs
 Rating:
4/5 (4 votes)
Dogfight lessons Tabs too difficult? Try these video lessons and learn fast
                dogfight


zeke





GT1
e:--------------------------------------------------------------------|
B:-8-8-6/8-8-8-8-6/8-8-8-8-6/8-8-8-8-6/8-8-8-8-6/8-8-8-8-6/8--8-------|
G:-8-8-6/8-8-8-8-6/8-8-8-8-6/8-8-8-8-6/8-8-8-8-6/8-8-8-8-6/8--8-------|
D:-8-8-6/8-8-8-8-6/8-8-8-8-6/8-8-8-8-6/8-8-8-8-6/8-8-8-8-6/8--8---7-6-|
A:-6-6-4/6-6-6-6-4/6-6-6-6-4/6-6-6-6-4/6-6-6-6-4/6-6-6-6-4/6--6---7-6-|
E:----------------------------------------------------------------5-4-|
GT2
e:--------------------------------------------------------------------|
B:--------------------------------------------------------------------|
G:--------------------------------------------------------------------|
D:-8-8-6/8-8-8-8-6/8-8-8-8-6/8-8-8-8-6/8-8-8-8-6/8-8-8-8-6/8--8-------|
A:-6-6-4/6-6-6-6-4/6-6-6-6-4/6-6-6-6-4/6-6-6-6-4/6-6-6-6-4/6--6---7-6-|
E:----------------------------------------------------------------5-4-|

GT1
e:----------------------------------------------------------------------|
B:-8-8-6/8-8-8-8-6/8-8-8-8-6/8-8-8-8-4---8-8-8-8-6/8-8-8-8-6/8--8-------|
G:-8-8-6/8-8-8-8-6/8-8-8-8-6/8-8-8-8-4---8-8-8-8-6/8-8-8-8-6/8--8-------|
D:-8-8-6/8-8-8-8-6/8-8-8-8-6/8-8-8-8-4---8-8-8-8-6/8-8-8-8-6/8--8---7-6-|
A:-6-6-4/6-6-6-6-4/6-6-6-6-4/6-6-6-6-2---6-6-6-6-4/6-6-6-6-4/6--6---7-6-|
E:------------------------------------------------------------------5-4-|
GT2
e:----------------------------------------------------------------------|
B:----------------------------------------------------------------------|
G:----------------------------------------------------------------------|
D:-8-8-6/8-8-8-8-6/8-8-8-8-6/8-8-8-8-4---8-8-8-8-6/8-8-8-8-6/8--8-------|
A:-6-6-4/6-6-6-6-4/6-6-6-6-4/6-6-6-6-2---6-6-6-6-4/6-6-6-6-4/6--6---7-6-|
E:------------------------------------------------------------------5-4-|


GT1
e:------------------------------------------------------------------------------|
B:-8-8-6/8-8-8-8-6/8-8-8-8-6/8-8-8-8-4---8-8-8-8-6/8-8-8-8-6/8--8---------------|
G:-8-8-6/8-8-8-8-6/8-8-8-8-6/8-8-8-8-4---8-8-8-8-6/8-8-8-8-6/8--8---------------|
D:-8-8-6/8-8-8-8-6/8-8-8-8-6/8-8-8-8-4---8-8-8-8-6/8-8-8-8-6/8--8-8-8-8-8-8--11-|
A:-6-6-4/6-6-6-6-4/6-6-6-6-4/6-6-6-6-2---6-6-6-6-4/6-6-6-6-4/6--6-8-8-8-8-8--11-|
E:----------------------------------------------------------------6-6-6-6-6--9--|
GT2
e:------------------------------------------------------------------------------|
B:------------------------------------------------------------------------------|
G:------------------------------------------------------------------------------|
D:-8-8-6/8-8-8-8-6/8-8-8-8-6/8-8-8-8-4---8-8-8-8-6/8-8-8-8-6/8--8---------------|
A:-6-6-4/6-6-6-6-4/6-6-6-6-4/6-6-6-6-2---6-6-6-6-4/6-6-6-6-4/6--6-8-8-8-8-8--11-|
E:----------------------------------------------------------------6-6-6-6-6--9--|


e:------------------|
B:------------------|
G:-8-8-8-8-8--------|
D:-8-8-8-8-8--6-6/--|
A:-6-6-6-6-6--6-6/--|
E:------------4-4/--|

:------------------|
:------------------|
:------------------|
:------------------|
:-8-8-8-8-8--11-11-|
:-6-6-6-6-6--9--9--|


:------------------------|
:------------------------|
:------------------------|
:------------------------|
:-8-8-8-8-8--10-10-11-13-|
:-6-6-6-6-6--8--8--9--11-|

solo
e:---------------------------------------------------------------------------|
B:-13B-13B-13B------------13B-13B-13B------------13B-13B-13B-----------------|
G:-13B-13B-13Bp11---------13B-13B-13Bp11---------13B-13B-13Bp11--------------|
D:----------------13B~~~~----------------13B~~~~-----------------13B~~~~-----|
A:---------------------------------------------------------------------------|
E:---------------------------------------------------------------------------|

e:--------------------------------------------------------------------|
B:-8-8-6/8-8-8-8-6/8-8-8-8-6/8-8-8-8-6/8-8-8-8-6/8-8-8-8-6/8--8-------|
G:-8-8-6/8-8-8-8-6/8-8-8-8-6/8-8-8-8-6/8-8-8-8-6/8-8-8-8-6/8--8-------|
D:-8-8-6/8-8-8-8-6/8-8-8-8-6/8-8-8-8-6/8-8-8-8-6/8-8-8-8-6/8--8---7-6-|
A:-6-6-4/6-6-6-6-4/6-6-6-6-4/6-6-6-6-4/6-6-6-6-4/6-6-6-6-4/6--6---7-6-|
E:----------------------------------------------------------------5-4-|


GT1
e:------------------------------------------------------------------------------|
B:-8-8-6/8-8-8-8-6/8-8-8-8-6/8-8-8-8-4---8-8-8-8-6/8-8-8-8-6/8--8---------------|
G:-8-8-6/8-8-8-8-6/8-8-8-8-6/8-8-8-8-4---8-8-8-8-6/8-8-8-8-6/8--8---------------|
D:-8-8-6/8-8-8-8-6/8-8-8-8-6/8-8-8-8-4---8-8-8-8-6/8-8-8-8-6/8--8-8-8-8-8-8--11-|
A:-6-6-4/6-6-6-6-4/6-6-6-6-4/6-6-6-6-2---6-6-6-6-4/6-6-6-6-4/6--6-8-8-8-8-8--11-|
E:----------------------------------------------------------------6-6-6-6-6--9--|
GT2
e:------------------------------------------------------------------------------|
B:------------------------------------------------------------------------------|
G:------------------------------------------------------------------------------|
D:-8-8-6/8-8-8-8-6/8-8-8-8-6/8-8-8-8-4---8-8-8-8-6/8-8-8-8-6/8--8---------------|
A:-6-6-4/6-6-6-6-4/6-6-6-6-4/6-6-6-6-2---6-6-6-6-4/6-6-6-6-4/6--6-8-8-8-8-8--11-|
E:----------------------------------------------------------------6-6-6-6-6--9--|

e:------------------|
B:------------------|
G:-8-8-8-8-8--------|
D:-8-8-8-8-8--6-6/--|
A:-6-6-6-6-6--6-6/--|
E:------------4-4/--|

e:-------------------|
B:-------------------|
G:-------------------|
D:-------------------|
A:-9-9-9-9-9--6--6-6-|
E:-7-7-7-7-7--4--4-4-|

:------------|
:------------|
:------------|
:-11---------|
:-9--11--13\-|
:----9---11\-|
            
Submit corrections

comments powered by Disqus
↑ Back to top | Zeke Tabs for Dogfight. Lyrics for acoustic guitar and electric guitar. Tablatures and chords are parodies/interpretations of the original songs. You may use it for private study, scholarship, research or language learning purposes only