>
 >
Devils Island

Devils Island Guitar Tabs

Zeke - Devils Island chords, tabs, tablatures, lyrics

Guitar lessons | Add/correct | Request | Top 50 tabs Artists:  A B C D E F G H I J K L M N O P Q R S T U V W X Y Z 0-9

Devils Island Guitar Tabs – Zeke

CD, Sheet music, Poster

Do you like Devils Island? Share with your friends now
Tabs


tune 2 steps down
       
gt1                
Eb|---0---0-------0--0--3~~~-|
Bb|-1---3---3p1---1--1--3~~~-|
F#|-2-----------2-2----------|
C#|--------------------------|
G#|--------------------------|
C#|--------------------------|

gt2
Eb|---0---0-------0--0--3~~~-0-0-0-|
Bb|-1---3---3p1---1--1--3~~~-1-1-1-|
F#|-2-----------2-2----------------|
C#|--------------------------------|
G#|--------------------------------|
C#|--------------------------------|


Eb|----|
Bb|----|
F#|----|
C#|-2--|
G#|-0--|
C#|----|

verse
Eb|-----------|
Bb|-----------|
F#|-----------|
C#|--5--5---2-|
G#|--3--3---0-|
C#|-----------|

pick slide
Eb|--------------------------|
Bb|--------------------------|
F#|------5-5-----------------|
C#|------3-3--5-5--2-2-2-2-2-|
G#|-x/--------3-3--0-0-0-0-0-|
C#|-x/-----------------------|

Eb|---------------------|
Bb|---------------------|
F#|-5-5-----------------|
C#|-3-3--5-5--2-2-2-2-2-|
G#|------3-3--0-0-0-0-0-|
C#|---------------------|

Eb|------------------------------|
Bb|------------------------------|
F#|-5-5-5-5-5-5-5--4-4-4-4-4-4-4-|
C#|-3-3-3-3-3-3-3--2-2-2-2-2-2-2-|
G#|------------------------------|
C#|------------------------------|

Eb|---0---0-------0--0--3~~~-|
Bb|-1---3---3p1---1--1--3~~~-|
F#|-2-----------2-2----------|
C#|--------------------------|
G#|--------------------------|
C#|--------------------------|


Eb|----|
Bb|----|
F#|----|
C#|-2--|
G#|-0--|
C#|----|

verse
Eb|-----------|
Bb|-----------|
F#|-----------|
C#|--5--5---2-|
G#|--3--3---0-|
C#|-----------|

pick slide
Eb|--------------------------|
Bb|--------------------------|
F#|------5-5-----------------|
C#|------3-3--5-5--2-2-2-2-2-|
G#|-x/--------3-3--0-0-0-0-0-|
C#|-x/-----------------------|

Eb|---------------------|
Bb|---------------------|
F#|-5-5-----------------|
C#|-3-3--5-5--2-2-2-2-2-|
G#|------3-3--0-0-0-0-0-|
C#|---------------------|

Eb|------------------------------|
Bb|------------------------------|
F#|-5-5-5-5-5-5-5--4-4-4-4-4-4-4-|
C#|-3-3-3-3-3-3-3--2-2-2-2-2-2-2-|
G#|------------------------------|
C#|------------------------------|

gt1                
Eb|---0---0-------0--0--3~~~-|
Bb|-1---3---3p1---1--1--3~~~-|
F#|-2-----------2-2----------|
C#|--------------------------|
G#|--------------------------|
C#|--------------------------|

gt2
Eb|---0---0-------0--0--3~~~-0-0-0-|
Bb|-1---3---3p1---1--1--3~~~-1-1-1-|
F#|-2-----------2-2----------------|
C#|--------------------------------|
G#|--------------------------------|
C#|--------------------------------|

Eb|---0---0-------0--0--3~~~-3-3-3-|
Bb|-3---3---3p1---3--3--3~~~-3-3-3-|
F#|-3-----------3-3----------------|
C#|--------------------------------|
G#|--------------------------------|
C#|--------------------------------|

solo
Eb|-------------------------------------------12-------------------------------------------|
Bb|----------------------------------------15----16-15-13-15-13----------------------------|
F#|-/14-14-14-14-14-14-14-14-14-14~~~~--14----------------------16-15-13-15-13-------------|
C#|----------------------------------------------------------------------------16-15-13-15-|
G#|----------------------------------------------------------------------------------------|
C#|----------------------------------------------------------------------------------------|

Eb|----------------------------------------------------------------------------------------|
Bb|----------------------------------------------------------------------------------------|
F#|----------------------------------------------------------------------------------------|
C#|-13-------------------------------------------------13-15-15-15-15-15--15-15-15p13----13|
G#|----16-15-13-15-13-------------------------13-15-16--------------------------------15---|
C#|-------------------16-15-13-15-13-13-15-16----------------------------------------------|

Eb|------------17-19-18-17h18p17---------------------------------------------|
Bb|--------20b-------------------20-17-19-17---------------------------------|
F#|------------------------------------------20-17-19-17----17-19-17-19-19bf-|
C#|-13~~~~-----------------------------------------------19------------------|
G#|--------------------------------------------------------------------------|
C#|--------------------------------------------------------------------------|

verse
Eb|-----------|
Bb|-----------|
F#|-----------|
C#|--5--5---2-|
G#|--3--3---0-|
C#|-----------|

pick slide
Eb|--------------------------|
Bb|--------------------------|
F#|------5-5-----------------|
C#|------3-3--5-5--2-2-2-2-2-|
G#|-x/--------3-3--0-0-0-0-0-|
C#|-x/-----------------------|

Eb|---------------------|
Bb|---------------------|
F#|-5-5-----------------|
C#|-3-3--5-5--2-2-2-2-2-|
G#|------3-3--0-0-0-0-0-|
C#|---------------------|

Eb|------------------------------|
Bb|------------------------------|
F#|-5-5-5-5-5-5-5--4-4-4-4-4-4-4-|
C#|-3-3-3-3-3-3-3--2-2-2-2-2-2-2-|
G#|------------------------------|
C#|------------------------------|


Eb|--------------------------|
Bb|--------------------------|
F#|--------------------------|
C#|--------------------------|
G#|-3-3---5-5---7--7-7-7-7-7-|
C#|-1-1---3-3---5--5-5-5-5-5-|

Eb|-------------------|
Bb|-------------------|
F#|-------------------|
C#|-------------------|
G#|-3-3-3--5-5-5--7---|
C#|-1-1-1--3-3-3--5---|





Comments


Popular Zeke tabs & chords
Evil Dead Bass Tabs
Death Alley Tabs
Eyes Of Satan Tabs
Fucked Up City 1 Tabs
Highway Star Tabs
Highway Star 1 Tabs
Liar Tabs
Love Gun Tabs
Mainline Tabs
Rodney Tabs


Song lyrics



↑ Back to top | Tablatures and chords are parodies/interpretations of the original songs. You may use it for private study, scholarship, research or language learning purposes only
© 2014 AZChords.com Contact us | Privacy policy | DMCA | Add/correct tabs | Request tabs | Top 50 tabs