» » »

Zeke, Death Alley Tabs (ver.1)

Artists:  A B C D E F G H I J K L M N O P Q R S T U V W X Y Z # 

Death Alley Tabs (ver.1)

Zeke Tabs
 Rating:
4.3/5 (6 votes)
Death Alley lessons Tabs too difficult? Try these video lessons and learn fast
1
                I TAKE NO CREDIT FOR THIS, BUT I'M PUTTING THIS UP BECAUSE IT IS THE ONLY ACCURATE TAB I FOUND
AND IT ISN'T ON THIS SITE.



eb:-----------12nh----------------------------------|
Bb:---------------12nh------------------------------|
Gb:--------------------12nh-------------------------|
Db:-2--3--2-------------------2-3-2-----------------|
Ab:-2--3--2-------------------2-3-2--7-5---5--------|
Eb:-0--1--0-------------------0-1-0------7----7-6-5-|

eb:--------------------|
Bb:--------------------|
Gb:--------------------|
Db:-9-9--5-5--7-7--2-2-|
Ab:-7-7--3-3--5-5--0-0-|
Eb:--------------------|

eb:---------------------|
Bb:---------------------|
Gb:---------------------|
Db:-5-5-5-5-5-5-5-5-5-5-|
Ab:-3-3-3-3-3-3-3-3-3-3-|
Eb:---------------------|

eb:-----------12nh----------------------------------|
Bb:---------------12nh------------------------------|
Gb:--------------------12nh-------------------------|
Db:-2--3--2-------------------2-3-2-----------------|
Ab:-2--3--2-------------------2-3-2--7-5---5--------|
Eb:-0--1--0-------------------0-1-0------7----7-6-5-|

eb:--------------------|
Bb:--------------------|
Gb:--------------------|
Db:-9-9--5-5--7-7--2-2-|
Ab:-7-7--3-3--5-5--0-0-|
Eb:--------------------|

eb:----------------------------------------|
Bb:----------------------------------------|
Gb:----------------------------------------|
Db:-5-5-5-5-5-5-5-5-5-5--2-2-2-2-2-2-2-2-2-|
Ab:-3-3-3-3-3-3-3-3-3-3--0-0-0-0-0-0-0-0-0-|
Eb:----------------------------------------|

:-12b-12b-12b-12b-12b-12b-12b----------------------|
:-15b-15b-15b-15b-15b-15b-15b----------------------|
:--------------------------------------------------|
:--------------------------------------------------|
:-------------------------------12-12-12--10-10-10-|
:-------------------------------10-10-10--8--8--8--|

eb:--------------------|
Bb:--------------------|
Gb:--------------------|
Db:-9-9--5-5--7-7--2-2-|
Ab:-7-7--3-3--5-5--0-0-|
Eb:--------------------|

eb:----------------------------------------|
Bb:----------------------------------------|
Gb:----------------------------------------|
Db:-5-5-5-5-5-5-5-5-5-5--2-2-2-2-2-2-2-2-2-|
Ab:-3-3-3-3-3-3-3-3-3-3--0-0-0-0-0-0-0-0-0-|
Eb:----------------------------------------|

eb:-----------12nh----------------------------------|
Bb:---------------12nh------------------------------|
Gb:--------------------12nh-------------------------|
Db:-2--3--2-------------------2-3-2-----------------|
Ab:-2--3--2-------------------2-3-2--7-5---5--------|
Eb:-0--1--0-------------------0-1-0------7----7-6-5-|

solo
eb:---------------------------------------------------------12-15-12-14-12--------------|
Bb:-15b-15b-15b-15-12-14-12---------------------15b-15b-15b----------------15-14-12-15b-|
Gb:-------------------------15-12-14-12-14-14b------------------------------------------|
Db:-------------------------------------------------------------------------------------|
Ab:-------------------------------------------------------------------------------------|
Eb:-------------------------------------------------------------------------------------|

                                                  repeat         repeat        repeat
eb:-------------------------------------------|-12b-12b-12b-|-14b-14b-14b-|-15b-15b-15b-|
Bb:-15b-15b-15b-15-12-14-12-------------------|-15b-15b-15b-|-17b-17b-17b-|-18b-18b-18b-|
Gb:-------------------------15-12-14-12-14-14b|-------------|-------------|-------------|
Db:-------------------------------------------|-------------|-------------|-------------|
Ab:-------------------------------------------|-------------|-------------|-------------|
Eb:-------------------------------------------|-------------|-------------|-------------|

     repeat          repeat
eb:-17b-17b-17b-|-15-18-15-17-15-----|
Bb:-20b-20b-20b-|----------------18--|
Gb:-------------|--------------------|
Db:-------------|--------------------|
Ab:-------------|--------------------|
Eb:-------------|--------------------|


:----------------------------------------------------------------------------|
:----------------------------------------------------------------------------|
:----------------------------------------------------------------------------|
:----------------------------------------------------------------------------|
:-7-5-7--5-7-5--7-5--7--3--2-2-2-2-2-2-2-2-2-2-2-2-2-2-2-2-2-2-2-2-2-2-2-2-2-|
:-5-3-5--3-5-3--5-3--5--1--0-0-0-0-0-0-0-0-0-0-0-0-0-0-0-0-0-0-0-0-0-0-0-0-0-|

eb:------------------------|
Bb:------------------------|
Gb:------------------------|
Db:-2----------------------|
Ab:-2----------------------|
Eb:-0----------------------|

eb:---------------------------------------------------|
Bb:---------------------------------------------------|
Gb:---------------------------------------------------|
Db:---------------------------------------------------|
Ab:---------------------------------------------------|
Eb:-0-0-0-0-0-0-0-0-0-0-0-0-0-0-0-0-0-0-0-0-0-0-0-0-0-|

eb:-------------------------------------------------------|
Bb:------------------------8-7h8p7----10-9h10p9h10p9h10p9-|
Gb:--------------------------------9----------------------|
Db:-------------------------------------------------------|
Ab:-7--7-7-7--7--7--7--7----------------------------------|
Eb:-0--0-0-0--0--0--0--0----------------------------------|

       repeat
eb:------------------|-------|
Bb:-8-7h8p7---10-8-7-|-8-7h8-|
Gb:---------9--------|-------|
Db:------------------|-------|
Ab:------------------|-------|
Eb:------------------|-------|

:----------------------------------------------------------------------------------|
:----------------------------------------------------------------------------------|
:----------------------------------------------------------------------------------|
:------------------------------------------------------------------------------2---|
:-7-7-7-7-7-7-7-7-7-7-7-7-7-7-7-7--9-9-9-9--10-10-10-10-10--12-12-12-12-12-----2---|
:-0-0-0-0-0-0-0-0-0-0-0-0-0-0-0-0--0-0-0-0--0--0--0--0--0---0--0--0--0--0------0---|
            
Submit corrections

comments powered by Disqus
↑ Back to top | Zeke Tabs for Death Alley. Lyrics for acoustic guitar and electric guitar. 1 Tablatures and chords are parodies/interpretations of the original songs. You may use it for private study, scholarship, research or language learning purposes only