>
 >
Daytime Dilemma

Daytime Dilemma Guitar Tabs

Zeke - Daytime Dilemma chords, tabs, tablatures, lyrics

Guitar lessons | Add/correct | Request | Top 50 tabs Artists:  A B C D E F G H I J K L M N O P Q R S T U V W X Y Z 0-9

Daytime Dilemma Guitar Tabs – Zeke

CD, Sheet music, Poster

Do you like Daytime Dilemma? Share with your friends now
TabsTabs v2
daytime dilemma (dangers of love)


eddie vedder & zeke






GT1
e:----------------------------------------------------|
B:-2--2-2-2--5--3-3-3-3-3--2--4-4-4-4-4--7--5-5-5-5-5-|
G:-2--2-2-2--4--2-2-2-2-2--2--4-4-4-4-4--6--4-4-4-4-4-|
D:-2--2-2-2--2--0-0-0-0-0--2--4-4-4-4-4--4--2-2-2-2-2-|
A:-0--0-0-0----------------0--2-2-2-2-2---------------|
E:----------------------------------------------------|
GT2
e:--------------------------------------------------------|
B:--------------------------------------------------------|
G:-----------------------------------------------9-9-9-9--|
D:-2--2-2-2--9--7-7-7-7-7--6--4-4-4-4-4--11--9-9-9-9-9-9--|
A:-0--0-0-0--7--5-5-5-5-5--4--2-2-2-2-2--9---7-7-7--------|
E:--------------------------------------------------------|


GT1
e:--------------------------------------------------|
B:-2--2-2-2--5--3-3-3-3-3---5-5-5-5-5-5-5-5-5-5-5-5-|
G:-2--2-2-2--4--2-2-2-2-2---4-4-4-4-4-4-4-4-4-4-4-4-|
D:-2--2-2-2--2--0-0-0-0-0---2-2-2-2-2-2-2-2-2-2-2-2-|
A:-0--0-0-0-----------------------------------------|
E:--------------------------------------------------|
GT2
e:--------------------------------------------------|
B:--------------------------------------------------|
G:------------------------------9-9-9-9-9-9-9-9-9-9-|
D:-2--2-2-2--9--7-7-7-7-7---9-9-9-9-9-9-9-9-9-9-9-9-|
A:-0--0-0-0--7--5-5-5-5-5---7-7-7-7-7-7-7-7-7-7-7-7-|
E:--------------------------------------------------|

e:------------------------------------------------------------|
B:------------------------------------------------------------|
G:------------------------------------------------------------|
D:------------------------------------------------------------|
A:-6/7-7-7-7-7-7--6/7-7-7-7-7-7--6/7-7-7-7-7-7--6/7-7-7-7-7-7-|
E:-4/5-5-5-5-5-5--4/5-5-5-5-5-5--4/5-5-5-5-5-5--4/5-5-5-5-5-5-|

verse
pm............................
:----------------------------------------------------|
:----------------------------------------------------|
:----------------------------------------------------|
:-------------------------------9-9-9-9-9-9-9-9-9-9--|
:-7-7-7-7-7-7--7-7-7-7-7-7-7-7--7-7-7-7-7-7-7-7-7-7--|
:-5-5-5-5-5-5--5-5-5-5-5-5-5-5-----------------------|

pm............................
:------------------------------------------------------------|
:------------------------------------------------------------|
:------------------------------------------------------------|
:-------------------------------9-9-9-9-9-9-9-9-9-9--7-7-7-9-|
:-7-7-7-7-7-7--7-7-7-7-7-7-7-7--7-7-7-7-7-7-7-7-7-7--5-5-5-7-|
:-5-5-5-5-5-5--5-5-5-5-5-5-5-5-------------------------------|

e:----------------------------------------------------------------------------------|
B:----------------------------------------------------------------------------------|
G:----------------------------------------------------------------------------------|
D:-7-7-7-7-7-7-7--9-9-9-9-9-9--6-6-6-6-6-6--11-11-11-11-11-7-7-7-7-7-7--7-7-7-7-7-7-|
A:-5-5-5-5-5-5-5--7-7-7-7-7-7--4-4-4-4-4-4--9--9--9--9--9--5-5-5-5-5-5--5-5-5-5-5-5-|
E:----------------------------------------------------------------------------------|

:-----------------------|
:-----------------------|
:-----------------------|
:--9-9-9-9-9-9-9-9-9-9--|
:--7-7-7-7-7-7-7-7-7-7--|
:-----------------------|

verse
pm............................
:----------------------------------------------------|
:----------------------------------------------------|
:----------------------------------------------------|
:-------------------------------9-9-9-9-9-9-9-9-9-9--|
:-7-7-7-7-7-7--7-7-7-7-7-7-7-7--7-7-7-7-7-7-7-7-7-7--|
:-5-5-5-5-5-5--5-5-5-5-5-5-5-5-----------------------|

pm............................
:------------------------------------------------------------|
:------------------------------------------------------------|
:------------------------------------------------------------|
:-------------------------------9-9-9-9-9-9-9-9-9-9--7-7-7-9-|
:-7-7-7-7-7-7--7-7-7-7-7-7-7-7--7-7-7-7-7-7-7-7-7-7--5-5-5-7-|
:-5-5-5-5-5-5--5-5-5-5-5-5-5-5-------------------------------|

e:----------------------------------------------------------------------------------|
B:----------------------------------------------------------------------------------|
G:----------------------------------------------------------------------------------|
D:-7-7-7-7-7-7-7--9-9-9-9-9-9--6-6-6-6-6-6--11-11-11-11-11-7-7-7-7-7-7--7-7-7-7-7-7-|
A:-5-5-5-5-5-5-5--7-7-7-7-7-7--4-4-4-4-4-4--9--9--9--9--9--5-5-5-5-5-5--5-5-5-5-5-5-|
E:----------------------------------------------------------------------------------|

:-----------------------|
:-----------------------|
:-----------------------|
:--9-9-9-9-9-9-9-9-9-9--|
:--7-7-7-7-7-7-7-7-7-7--|
:-----------------------|

chorus
GT1
e:----------------------------------------------------|
B:-2--2-2-2--5--3-3-3-3-3--2--4-4-4-4-4--7--5-5-5-5-5-|
G:-2--2-2-2--4--2-2-2-2-2--2--4-4-4-4-4--6--4-4-4-4-4-|
D:-2--2-2-2--2--0-0-0-0-0--2--4-4-4-4-4--4--2-2-2-2-2-|
A:-0--0-0-0----------------0--2-2-2-2-2---------------|
E:----------------------------------------------------|
GT2
e:--------------------------------------------------------|
B:--------------------------------------------------------|
G:-----------------------------------------------9-9-9-9--|
D:-2--2-2-2--9--7-7-7-7-7--6--4-4-4-4-4--11--9-9-9-9-9-9--|
A:-0--0-0-0--7--5-5-5-5-5--4--2-2-2-2-2--9---7-7-7--------|
E:--------------------------------------------------------|

GT1
e:--------------------------------------------------|
B:-2--2-2-2--5--3-3-3-3-3---5-5-5-5-5-5-5-5-5-5-5-5-|
G:-2--2-2-2--4--2-2-2-2-2---4-4-4-4-4-4-4-4-4-4-4-4-|
D:-2--2-2-2--2--0-0-0-0-0---2-2-2-2-2-2-2-2-2-2-2-2-|
A:-0--0-0-0-----------------------------------------|
E:--------------------------------------------------|
GT2
e:--------------------------------------------------|
B:--------------------------------------------------|
G:------------------------------9-9-9-9-9-9-9-9-9-9-|
D:-2--2-2-2--9--7-7-7-7-7---9-9-9-9-9-9-9-9-9-9-9-9-|
A:-0--0-0-0--7--5-5-5-5-5---7-7-7-7-7-7-7-7-7-7-7-7-|
E:--------------------------------------------------|


verse
pm............................
:----------------------------------------------------|
:----------------------------------------------------|
:----------------------------------------------------|
:-------------------------------9-9-9-9-9-9-9-9-9-9--|
:-7-7-7-7-7-7--7-7-7-7-7-7-7-7--7-7-7-7-7-7-7-7-7-7--|
:-5-5-5-5-5-5--5-5-5-5-5-5-5-5-----------------------|

pm............................
:------------------------------------------------------------|
:------------------------------------------------------------|
:------------------------------------------------------------|
:-------------------------------9-9-9-9-9-9-9-9-9-9--7-7-7-9-|
:-7-7-7-7-7-7--7-7-7-7-7-7-7-7--7-7-7-7-7-7-7-7-7-7--5-5-5-7-|
:-5-5-5-5-5-5--5-5-5-5-5-5-5-5-------------------------------|

e:----------------------------------------------------------------------------------|
B:----------------------------------------------------------------------------------|
G:----------------------------------------------------------------------------------|
D:-7-7-7-7-7-7-7--9-9-9-9-9-9--6-6-6-6-6-6--11-11-11-11-11-7-7-7-7-7-7--7-7-7-7-7-7-|
A:-5-5-5-5-5-5-5--7-7-7-7-7-7--4-4-4-4-4-4--9--9--9--9--9--5-5-5-5-5-5--5-5-5-5-5-5-|
E:----------------------------------------------------------------------------------|

:-----------------------|
:-----------------------|
:-----------------------|
:--9-9-9-9-9-9-9-9-9-9--|
:--7-7-7-7-7-7-7-7-7-7--|
:-----------------------|

chorus
GT1
e:----------------------------------------------------|
B:-2--2-2-2--5--3-3-3-3-3--2--4-4-4-4-4--7--5-5-5-5-5-|
G:-2--2-2-2--4--2-2-2-2-2--2--4-4-4-4-4--6--4-4-4-4-4-|
D:-2--2-2-2--2--0-0-0-0-0--2--4-4-4-4-4--4--2-2-2-2-2-|
A:-0--0-0-0----------------0--2-2-2-2-2---------------|
E:----------------------------------------------------|
GT2
e:--------------------------------------------------------|
B:--------------------------------------------------------|
G:-----------------------------------------------9-9-9-9--|
D:-2--2-2-2--9--7-7-7-7-7--6--4-4-4-4-4--11--9-9-9-9-9-9--|
A:-0--0-0-0--7--5-5-5-5-5--4--2-2-2-2-2--9---7-7-7--------|
E:--------------------------------------------------------|

GT1
e:--------------------------------------------------|
B:-2--2-2-2--5--3-3-3-3-3---5-5-5-5-5-5-5-5-5-5-5-5-|
G:-2--2-2-2--4--2-2-2-2-2---4-4-4-4-4-4-4-4-4-4-4-4-|
D:-2--2-2-2--2--0-0-0-0-0---2-2-2-2-2-2-2-2-2-2-2-2-|
A:-0--0-0-0-----------------------------------------|
E:--------------------------------------------------|
GT2
e:--------------------------------------------------|
B:--------------------------------------------------|
G:------------------------------9-9-9-9-9-9-9-9-9-9-|
D:-2--2-2-2--9--7-7-7-7-7---9-9-9-9-9-9-9-9-9-9-9-9-|
A:-0--0-0-0--7--5-5-5-5-5---7-7-7-7-7-7-7-7-7-7-7-7-|
E:--------------------------------------------------|


e:--------------------------------------|
B:--------------------------------------|
G:-6--6-6--6--6-6--11--11-11--11--11-11-|
D:-6--6-6--6--6-6--11--11-11--11--11-11-|
A:-4--4-4--4--4-4--9---9--9---9---9--9--|
E:--------------------------------------|

e:----------------------------------------------------------------------------------|
B:----------------------------------------------------------------------------------|
G:----------------------------------------------------------------------------------|
D:-7-7-7-7-7-7-7-7-7--9-9-9-9-9-9--8/9-9-9-9-9-9--8/9-9-9-9-9-9--8/9-9-9-9-9-9------|
A:-5-5-5-5-5-5-5-5-5--7-7-7-7-7-7--6/7-7-7-7-7-7--6/7-7-7-7-7-7--6/7-7-7-7-7-7------|
E:----------------------------------------------------------------------------------|

chorus
GT1
e:----------------------------------------------------|
B:-2--2-2-2--5--3-3-3-3-3--2--4-4-4-4-4--7--5-5-5-5-5-|
G:-2--2-2-2--4--2-2-2-2-2--2--4-4-4-4-4--6--4-4-4-4-4-|
D:-2--2-2-2--2--0-0-0-0-0--2--4-4-4-4-4--4--2-2-2-2-2-|
A:-0--0-0-0----------------0--2-2-2-2-2---------------|
E:----------------------------------------------------|
GT2
e:--------------------------------------------------------|
B:--------------------------------------------------------|
G:-----------------------------------------------9-9-9-9--|
D:-2--2-2-2--9--7-7-7-7-7--6--4-4-4-4-4--11--9-9-9-9-9-9--|
A:-0--0-0-0--7--5-5-5-5-5--4--2-2-2-2-2--9---7-7-7--------|
E:--------------------------------------------------------|

GT1
e:--------------------------------------------------|
B:-2--2-2-2--5--3-3-3-3-3---5-5-5-5-5-5-5-5-5-5-5-5-|
G:-2--2-2-2--4--2-2-2-2-2---4-4-4-4-4-4-4-4-4-4-4-4-|
D:-2--2-2-2--2--0-0-0-0-0---2-2-2-2-2-2-2-2-2-2-2-2-|
A:-0--0-0-0-----------------------------------------|
E:--------------------------------------------------|
GT2
e:--------------------------------------------------|
B:--------------------------------------------------|
G:------------------------------9-9-9-9-9-9-9-9-9-9-|
D:-2--2-2-2--9--7-7-7-7-7---9-9-9-9-9-9-9-9-9-9-9-9-|
A:-0--0-0-0--7--5-5-5-5-5---7-7-7-7-7-7-7-7-7-7-7-7-|
E:--------------------------------------------------|

e:------------------------------------------------------------|
B:------------------------------------------------------------|
G:------------------------------------------------------------|
D:-8/9-9-9-9-9-9--8/9-9-9-9-9-9--8/9-9-9-9-9-9--8/9-9-9-9-9-9-|
A:-6/7-7-7-7-7-7--6/7-7-7-7-7-7--6/7-7-7-7-7-7--6/7-7-7-7-7-7-|
E:------------------------------------------------------------|


:-----------------------------------------|
:-2---------------------------------------|
:-2---------------------------------------|
:-2---------------------------------------|
:-0---------------------------------------|
:-----------------------------------------|





Comments


Popular Zeke tabs & chords
Evil Dead Bass Tabs
Telephat Boy 1 Bass Tabs
Twisted 1 Bass Tabs
Haybailer Tabs
King Of Lynnwood Tabs
Overkill Tabs
Punk Rock Records Tabs
Razorblade Tabs
Rip And Destroy 1 Tabs
Season Of The Witch Tabs


Song lyrics



↑ Back to top | Tablatures and chords are parodies/interpretations of the original songs. You may use it for private study, scholarship, research or language learning purposes only
© 2014 AZChords.com Contact us | Privacy policy | DMCA | Add/correct tabs | Request tabs | Top 50 tabs