>
 >
Chiva Knievel

Chiva Knievel Guitar Tabs

Zeke - Chiva Knievel chords, tabs, tablatures, lyrics

Guitar lessons | Add/correct | Request | Top 50 tabs Artists:  A B C D E F G H I J K L M N O P Q R S T U V W X Y Z 0-9

Chiva Knievel Guitar Tabs – Zeke

CD, Sheet music, Poster

Do you like Chiva Knievel? Share with your friends now
Tabs
chiva knievel


zeke







tune 1 step down

                                               
eb:-----------------------------------------------------------------------|
Bb:-----------------------------------------------------------------------|
Gb:-----------------------------------------------------------------------|
Db:-----------------------------------------------------------------------|
Ab:-2-2---------5-5-6-7-7-7-7-7-7-7-7-7--2-2-------------9-7--7-7-7-7-7-7-|
Eb:-0-0--0-0-0--3-3-4-5-5-5-5-5-5-5-5-5--0-0--0-0-0-0-0--7-5--5-5-5-5-5-5-|

eb:----------------|
Bb:----------------|
Gb:----------------|
Db:----------------|
Ab:-10-10-10-10-10-|
Eb:-8--8--8--8--8--|

eb:----------------------------------------|
Bb:----------------------------------------|
Gb:----------------------------------------|
Db:------------------------------------7-9-|
Ab:-2-2--4-5-5-5--6-7-7-7--9-10-10-10--5-7-|
Eb:-0-0--2-3-3-3--4-5-5-5--7-8--8--8-------|

eb:------------------------------------------------------------|
Bb:------------------------------------------------------------|
Gb:------------------------------------------------------------|
Db:------------------------------------------9-----------------|
Ab:-2-2-2--5-5-5-5-5--7-7-7-7-7-7-7-8-8-8-8--7-----------------|
Eb:-0-0-0--3-3-3-3-3--5-5-5-5-5-5-5-6-6-6-6--------------------|

eb:-----------0----|
Bb:----------------|
Gb:-2bp0----3---3\-|
Db:------2---------|
Ab:----------------|
Eb:----------------|

eb:------------------------------------------|
Bb:------------------------------------------|
Gb:------------------------------------------|
Db:-9-9-9-9-9-9-9-9-9------------------------|
Ab:-7-7-7-7-7-7-7-7-7--7-7-7-7-7-7-7-8-7-5-2-|
Eb:--------------------5-5-5-5-5-5-5-6-5-3-0-|

  gt1
e:-----------------------------------------------------------------------------------|
B:-5--7-7-7-8-8-8-9-9-9-10-10-10-11-11-11-12-12-12-13-14-15-16-17-18-19-20-21-22-22\-|
G:-4--6-6-6-7-7-7-8-8-8-9--9--9--10-10-10-11-11-11-12-13-14-15-16-17-18-19-20-21-21\-|
D:-----------------------------------------------------------------------------------|
A:-----------------------------------------------------------------------------------|
E:-----------------------------------------------------------------------------------|
  gt2
e:------------------|
B:------------------|
G:------------------|
D:------------------|
A:-5-5-6-7--5-6-7-8-|
E:-3-3-4-5--3-4-5-6-|

eb:-----------------------------------------------------------------------|
Bb:-----------------------------------------------------------------------|
Gb:-----------------------------------------------------------------------|
Db:-----------------------------------------------------------------------|
Ab:-2-2---------5-5-6-7-7-7-7-7-7-7-7-7--2-2-------------9-7--7-7-7-7-7-7-|
Eb:-0-0--0-0-0--3-3-4-5-5-5-5-5-5-5-5-5--0-0--0-0-0-0-0--7-5--5-5-5-5-5-5-|

eb:----------------|
Bb:----------------|
Gb:----------------|
Db:----------------|
Ab:-10-10-10-10-10-|
Eb:-8--8--8--8--8--|

eb:----------------------------------------|
Bb:----------------------------------------|
Gb:----------------------------------------|
Db:------------------------------------7-9-|
Ab:-2-2--4-5-5-5--6-7-7-7--9-10-10-10--5-7-|
Eb:-0-0--2-3-3-3--4-5-5-5--7-8--8--8-------|

eb:-----------------------------------------|
Bb:-----------------------------------------|
Gb:-----------------------------------------|
Db:-----------------------------------------|
Ab:-2-2-2--5-5-5-5-5--7-7-7-7-7-7-7-8-8-8-8-|
Eb:-0-0-0--3-3-3-3-3--5-5-5-5-5-5-5-6-6-6-6-|

   gt1
eb:----------------------------------------------------------------------------|
Bb:----------------------------------------------------------------------------|
Gb:------------------------------------------------------------9---9-9-9-9-9-9-|
Db:-9-9-9-9-----9-9-9-9-9-9------9-9-9-9-9-9------9-9-9-9-9-9--9---9-9-9-9-9-9-|
Ab:-7-7-7-7-7-7-7-7-7-7-7-7--7-7-7-7-7-7-7-7--7-7-7-7-7-7-7-7--7-7-7-7-7-7-7-7-|
Eb:-0---0---0-0-0-0---0---0--0-0-0-0---0---0--0-0-0-0---0---0--0-0-0-0---0---0-|

   gt2
eb:--------------------------------------------------------------|
Bb:--------------------------------------------------------------|
Gb:--------------------------------------------------------------|
Db:------------------------------------------------------------2-|
Ab:------------------------------------------------------------2-|
Eb:------------------------------------------------------------0-|

eb:---------------------------------------|
Bb:---------------------------------------|
Gb:---------------------------------------|
Db:-2-2-2--3-3-3--4-4-4--5-5-5--6-6--7--9-|
Ab:-0-0-0--1-1-1--2-2-2--3-3-3--4-4--5--7-|
Eb:---------------------------------------|

                                            x4
eb:------------------------------------------|
Bb:------------------------------------------|
Gb:------------------------------------------|
Db:-9-9-9-9-9--------------------------------|
Ab:-7-7-7-7-7--5-5-5-5-5--7-7-7-7-7--8-8-7-5-|
Eb:------------3-3-3-3-3--5-5-5-5-5--6-6-5-3-|

   gt1                                             x4
eb:-------------------------------------------------|
Bb:-17b-15~~~---------------12----------------------|
Gb:------------16--14~~-14------12~~-12-------------|
Db:-------------------------------------14p12-------|
Ab:-------------------------------------------14----|
Eb:----------------------------------------------12-|
   gt2                                    x4
eb:----------------------------------------|
Bb:----------------------------------------|
Gb:----------------------------------------|
Db:------------------------------------7-9-|
Ab:-2-2--4-5-5-5--6-7-7-7--9-10-10-10--5-7-|
Eb:-0-0--2-3-3-3--4-5-5-5--7-8--8--8-------|

eb:-------------------------------------------------------------|
Bb:-------------------------------------------------------------|
Gb:----------------12-12-12-12-12-12-12-12-12-12-12-12-12-12-12-|
Db:----------------12-12-12-12-12-12-12-12-12-12-12-12-12-12-12-|
Ab:-2--------------10-10-10-10-10-10-10-10-10-10-10-10-10-10-10-|
Eb:-0-----------------------------------------------------------|

eb:---------------------|
Bb:---------------------|
Gb:---------------------|
Db:---------------------|
Ab:-5-5-6-7--5-6-7-8--2-|
Eb:-3-3-4-5--3-4-5-6--0-|



hillo son mex

17/08/11





Comments


Popular Zeke tabs & chords
Evil Dead Bass Tabs
Chiva Tabs
Daytime Dilemma 1 Tabs
Fucked Up City Tabs
I Believe In Miracles 1 Tabs
Killer Inside Tabs
Liar Tabs
Out Of Love Tabs
Slut Tabs
Telapath Boy Tabs


Song lyrics



↑ Back to top | Tablatures and chords are parodies/interpretations of the original songs. You may use it for private study, scholarship, research or language learning purposes only
© 2014 AZChords.com Contact us | Privacy policy | DMCA | Add/correct tabs | Request tabs | Top 50 tabs