» » »

Zeke, Automatic Tabs (ver.1)

Artists:  A B C D E F G H I J K L M N O P Q R S T U V W X Y Z # 

Automatic Tabs (ver.1)

Zeke Tabs
 Rating:
4/5 (4 votes)
Automatic lessons Tabs too difficult? Try these video lessons and learn fast
1
                automatic


zeke






eb:---------------------|
Bb:---------------------|
Gb:----------------3-3--|
Db:------5-5--3-3--1-1--|
Ab:-5-5--3-3--1-1-------|
Eb:-3-3-----------------|

eb:--------------------------------------------------|
Bb:--------------------------------------------------|
Gb:--------------------------------------------------|
Db:--------------------------------------------------|
Ab:-5-5-5-5--10-10-10-10-10--8-8-8-8--13-13-13-13-13-|
Eb:-3-3-3-3--8--8--8--8--8---6-6-6-6--11-11-11-11-11-|

verse
eb:--------------------------------------------------|
Bb:--------------------------------------------------|
Gb:--------------------------------------------------|
Db:--------------------------------------------------|
Ab:-5-5-5-5--10-10-10-10-10--8-8-8-8--13-13-13-13-13-|
Eb:-3-3-3-3--8--8--8--8--8---6-6-6-6--11-11-11-11-11-|


eb:---------------------|
Bb:---------------------|
Gb:---------------------|
Db:------7-7--8-8--5-5--|
Ab:-5-5--5-5--6-6--3-3--|
Eb:-3-3-----------------|

verse
eb:--------------------------------------------------|
Bb:--------------------------------------------------|
Gb:--------------------------------------------------|
Db:--------------------------------------------------|
Ab:-5-5-5-5--10-10-10-10-10--8-8-8-8--13-13-13-13-13-|
Eb:-3-3-3-3--8--8--8--8--8---6-6-6-6--11-11-11-11-11-|


:------------------------------|
:------------------------------|
:------------------------------|
:------------------------------|
:-5-5-5-5-5-5-5--7-7-7-7-7-7-7-|
:-3-3-3-3-3-3-3--5-5-5-5-5-5-5-|

verse
eb:--------------------------------------------------|
Bb:--------------------------------------------------|
Gb:--------------------------------------------------|
Db:--------------------------------------------------|
Ab:-5-5-5-5--10-10-10-10-10--8-8-8-8--13-13-13-13-13-|
Eb:-3-3-3-3--8--8--8--8--8---6-6-6-6--11-11-11-11-11-|

eb:---------------------|
Bb:---------------------|
Gb:---------------------|
Db:------7-7--8-8--5-5--|
Ab:-5-5--5-5--6-6--3-3--|
Eb:-3-3-----------------|

eb:--------------------------------------------------|
Bb:--------------------------------------------------|
Gb:--------------------------------------------------|
Db:--------------------------------------------------|
Ab:-5-5-5-5--10-10-10-10-10--8-8-8-8--13-13-13-13-13-|
Eb:-3-3-3-3--8--8--8--8--8---6-6-6-6--11-11-11-11-11-|

eb:---------------------|
Bb:---------------------|
Gb:---------------------|
Db:------7-7--8-8--5-5--|
Ab:-5-5--5-5--6-6--3-3--|
Eb:-3-3-----------------|

verse
eb:--------------------------------------------------|
Bb:--------------------------------------------------|
Gb:--------------------------------------------------|
Db:--------------------------------------------------|
Ab:-5-5-5-5--10-10-10-10-10--8-8-8-8--13-13-13-13-13-|
Eb:-3-3-3-3--8--8--8--8--8---6-6-6-6--11-11-11-11-11-|

eb:---------------------|
Bb:---------------------|
Gb:---------------------|
Db:------7-7--8-8--5-5--|
Ab:-5-5--5-5--6-6--3-3--|
Eb:-3-3-----------------|

verse
eb:--------------------------------------------------|
Bb:--------------------------------------------------|
Gb:--------------------------------------------------|
Db:--------------------------------------------------|
Ab:-5-5-5-5--10-10-10-10-10--8-8-8-8--13-13-13-13-13-|
Eb:-3-3-3-3--8--8--8--8--8---6-6-6-6--11-11-11-11-11-|

:------------------------------|
:------------------------------|
:------------------------------|
:------------------------------|
:-5-5-5-5-5-5-5--7-7-7-7-7-7-7-|
:-3-3-3-3-3-3-3--5-5-5-5-5-5-5-|

verse
eb:--------------------------------------------------|
Bb:--------------------------------------------------|
Gb:--------------------------------------------------|
Db:--------------------------------------------------|
Ab:-5-5-5-5--10-10-10-10-10--8-8-8-8--13-13-13-13-13-|
Eb:-3-3-3-3--8--8--8--8--8---6-6-6-6--11-11-11-11-11-|

eb:---------------------|
Bb:---------------------|
Gb:---------------------|
Db:------7-7--8-8--5-5--|
Ab:-5-5--5-5--6-6--3-3--|
Eb:-3-3-----------------|

eb:--------------------------------------------------|
Bb:--------------------------------------------------|
Gb:--------------------------------------------------|
Db:--------------------------------------------------|
Ab:-5-5-5-5--10-10-10-10-10--8-8-8-8--13-13-13-13-13-|
Eb:-3-3-3-3--8--8--8--8--8---6-6-6-6--11-11-11-11-11-|

eb:---------------------|
Bb:---------------------|
Gb:---------------------|
Db:------7-7--8-8--5-5--|
Ab:-5-5--5-5--6-6--3-3--|
Eb:-3-3-----------------|

eb:---------------------|
Bb:---------------------|
Gb:----------------3-3--|
Db:------5-5--3-3--1-1--|
Ab:-5-5--3-3--1-1-------|
Eb:-3-3-----------------|

eb:--------------------------------------------------|
Bb:--------------------------------------------------|
Gb:--------------------------------------------------|
Db:--------------------------------------------------|
Ab:-5-5-5-5--10-10-10-10-10--8-8-8-8--13-13-13-13-13-|
Eb:-3-3-3-3--8--8--8--8--8---6-6-6-6--11-11-11-11-11-|

eb:------------------------|
Bb:------------------------|
Gb:------------------------|
Db:------------------------|
Ab:-5----------------------|
Eb:-3----------------------|
            
Submit corrections

comments powered by Disqus
↑ Back to top | Zeke Tabs for Automatic. Lyrics for acoustic guitar and electric guitar. 1 Tablatures and chords are parodies/interpretations of the original songs. You may use it for private study, scholarship, research or language learning purposes only