» » »

Zeke, Arkansas Man Tabs (ver.1)

Artists:  A B C D E F G H I J K L M N O P Q R S T U V W X Y Z # 

Arkansas Man Tabs (ver.1)

Zeke Tabs
 Rating:
4/5 (4 votes)
Arkansas Man lessons Tabs too difficult? Try these video lessons and learn fast
                arkansas man


zeke






eb:-----------------|
Bb:-----------------|
Gb:-----------------|
Db:-----------------|
Ab:-3~-----------3/-|
Eb:----5-4-3-4-5----|

verse
i was born in arkansas city live my life...
eb:--------------------------|
Bb:--------------------------|
Gb:--------------------------|
Db:-7--7--7------------------|
Ab:-5--5--5--3------------3/-|
Eb:-------------5-4-3-4-5----|



eb:-----------------|
Bb:-----------------|
Gb:-----------------|
Db:-----------------|
Ab:-3~-----------3/-|
Eb:----5-4-3-4-5----|

arkansas man!...
e:------------------------------------|
B:------------------------------------|
G:------------------------------------|
D:------------------------------------|
A:-2---3--3---2---3--3---2---3--3---2-|
E:-0---1--1---0---1--1---0---1--1---0-|

eb:-----------------|
Bb:-----------------|
Gb:-----------------|
Db:-----------------|
Ab:-3~-----------3/-|
Eb:----5-4-3-4-5----|

verse
eb:--------------------------|
Bb:--------------------------|
Gb:--------------------------|
Db:-7--7--7------------------|
Ab:-5--5--5--3------------3/-|
Eb:-------------5-4-3-4-5----|

eb:-----------------|
Bb:-----------------|
Gb:-----------------|
Db:-----------------|
Ab:-3~-----------3/-|
Eb:----5-4-3-4-5----|

arkansas man!...
e:------------------------------------|
B:------------------------------------|
G:------------------------------------|
D:------------------------------------|
A:-2---3--3---2---3--3---2---3--3---2-|
E:-0---1--1---0---1--1---0---1--1---0-|

eb:-----------------|
Bb:-----------------|
Gb:-----------------|
Db:-----------------|
Ab:-3~-----------3/-|
Eb:----5-4-3-4-5----|

solo
:-11b-11b-11b-11------------------------------------------------------------------------|
:-14b-14b-14b----14-11----11------------------------------------------------------------|
:----------------------14----14-13-11-13-11-----11----------------11----11-13b-11-------|
:--------------------------------------------13----13-13~~--11-13----13-----------13-11-|
:---------------------------------------------------------------------------------------|
:---------------------------------------------------------------------------------------|

:-17b--14~~~--------------------------------14---------------------------------------------|
:------------17-14h17p14-----------------------17-14h17p14---------------------------------|
:------------------------17-14h16p14-----------------------17-14h16p14---------------------|
:-------------------------------------16-14----------------------------16-14-16-14---------|
:----------------------------------------------------------------------------------16-16-14|
:------------------------------------------------------------------------------------------|

:----------------------------------------------------------------------------------------|
:-------------5b-5b-5b-5b-5b-5b--7b---8b--8b--8b--8b--8b--8b---10b-10b-10b--8b--8b--8b---|
:-------------7b-7b-7b-7b-7b-7b--9b--10b-10b-10b-10b-10b-10b---12b-12b-12b-10b-10b-10b---|
:----------------------------------------------------------------------------------------|
:-14--16-14/-----------------------------------------------------------------------------|
:----------------------------------------------------------------------------------------|

:------------------------------------------------------------------------------------------|
:-10b-10b-10b--7b-7b-7b---8b--8b--8b--7b-7b-7b--5b-5b-5b--14b-14b-14b-14b------------------|
:-12b-12b-12b--9b-9b-9b--10b-10b-10b--9b-9b-9b--7b-7b-7b--14b-14b-14b-14b-14-14-14p12-14p12|
:------------------------------------------------------------------------------------------|
:------------------------------------------------------------------------------------------|
:------------------------------------------------------------------------------------------|

:-------------------------------------------------------------------------|
:-------------------------------------------------------------------------|
:----------12----14-12----------------------------------------------------|
:-14p12-14----14-------14-14--14/-----------------------------------------|
:-----------------------------------------0-1-2-1-0---------2-1--0--------|
:-----------------------------------0--3-------------3-2-0----------3--0--|

:-----------------------------10-8--------------------|
:-------8h9p8------8---------------10-8--6h8p8--------|
:-7--10-------10-7---10-7-10-------------------7~~~~--|
:-----------------------------------------------------|
:-----------------------------------------------------|
:-----------------------------------------------------|

e:------------------------------------|
B:------------------------------------|
G:------------------------------------|
D:------------------------------------|
A:-2---3--3---2---3--3---2---3--3---2-|
E:-0---1--1---0---1--1---0---1--1---0-|

eb:-----------------|
Bb:-----------------|
Gb:-----------------|
Db:-----------------|
Ab:-3~-----------3/-|
Eb:----5-4-3-4-5----|

verse
eb:--------------------------|
Bb:--------------------------|
Gb:--------------------------|
Db:-7--7--7------------------|
Ab:-5--5--5--3------------3/-|
Eb:-------------5-4-3-4-5----|


eb:-----------------|
Bb:-----------------|
Gb:-----------------|
Db:-----------------|
Ab:-3~-----------3/-|
Eb:----5-4-3-4-5----|

e:------------------------------------|
B:------------------------------------|
G:------------------------------------|
D:------------------------------------|
A:-2---3--3---2---3--3---2---3--3---2-|
E:-0---1--1---0---1--1---0---1--1---0-|

eb:-----------------|
Bb:-----------------|
Gb:-----------------|
Db:-----------------|
Ab:-3~-----------3/-|
Eb:----5-4-3-4-5----|



:------------------------------------------------------------------------------|
:-9b-9b-9b-9b-9b-9b--10b-10b-10b-10b-10b-10b--11b-11b-11b-11b--14b-14b-14b-14b-|
:-7b-7b-7b-7b-7b-7b--12b-12b-12b-12b-12b-12b--13b-13b-13b-13b--16b-16b-16b-16b-|
:------------------------------------------------------------------------------|
:------------------------------------------------------------------------------|
:------------------------------------------------------------------------------|

eb:------------------|
Bb:------------------|
Gb:------------------|
Db:------------------|
Ab:-3~-----------3h5-|
Eb:----5-4-3-4-5-----|

:----------------|
:----------------|
:----------------|
:----------------|
:-5-----5--2-----|
:-3-----3--0-----|


hillo son mex

herson
            
Submit corrections

comments powered by Disqus
↑ Back to top | Zeke Tabs for Arkansas Man. Lyrics for acoustic guitar and electric guitar. Tablatures and chords are parodies/interpretations of the original songs. You may use it for private study, scholarship, research or language learning purposes only