» » »

Zeke, All Night Tabs (ver.1)

Artists:  A B C D E F G H I J K L M N O P Q R S T U V W X Y Z # 

All Night Tabs (ver.1)

Zeke Tabs
 Rating:
4/5 (4 votes)
All Night lessons Tabs too difficult? Try these video lessons and learn fast
                *** all night


zeke







eb:----------------------------------|
Bb:----------------------------------|
Gb:----------------------------------|
Db:----------------------------------|
Ab:-2-2-2--8-7-7-7-5--2-2-2----5-7-5-|
Eb:-0-0-0--6-5-5-5-3--0-0-0-0--3-5-3-|

 verse
eb:---------------------------------------------------------|
Bb:---------------------------------------------------------|
Gb:---------------------------------------------------------|
Db:-9-9-9-9-9-9-9-9-9-9-9-9-9-9-9-9-9-9-9-9-9-9-9-9-9-9-9-9-|
Ab:-7-7-7-7-7-7-7-7-7-7-7-7-7-7-7-7-7-7-7-7-7-7-7-7-7-7-7-7-|
Eb:-0-0-0-0-0-0-0-0-0-0-0-0-0-0-0-0-0-0-0-0-0-0-0-0-0-0-0-0-|


uh baby                
:-------------------------|
:-------------------------|
:-------------------------|
:-------------------------|
:-9-9-9-9-9-9--5--12------|
:-7-7-7-7-7-7--3--10------|


lets *** all night
:--------------|
:--------------|
:--------------|
:--------------|
:-9-9-9-9-9-9--|
:-7-7-7-7-7-7--|


:---------|
:---------|
:---------|
:---------|
:-8--7--5-|
:-6--5--3-|

 verse
eb:---------------------------------------------------------|
Bb:---------------------------------------------------------|
Gb:---------------------------------------------------------|
Db:-9-9-9-9-9-9-9-9-9-9-9-9-9-9-9-9-9-9-9-9-9-9-9-9-9-9-9-9-|
Ab:-7-7-7-7-7-7-7-7-7-7-7-7-7-7-7-7-7-7-7-7-7-7-7-7-7-7-7-7-|
Eb:-0-0-0-0-0-0-0-0-0-0-0-0-0-0-0-0-0-0-0-0-0-0-0-0-0-0-0-0-|


uh baby                
:-------------------------|
:-------------------------|
:-------------------------|
:-------------------------|
:-9-9-9-9-9-9--5--12------|
:-7-7-7-7-7-7--3--10------|


lets *** all night
:--------------|
:--------------|
:--------------|
:--------------|
:-9-9-9-9-9-9--|
:-7-7-7-7-7-7--|


:---------|
:---------|
:---------|
:---------|
:-8--7--5-|
:-6--5--3-|

solo
eb:----------------------------------------------------------12~~~~-12---------------------|
Bb:-5-5----10-10-10-10-10-10--7--5-----10-10-10-10-10-10---------------15p12-15p12---------|
Gb:-5-6-7--9--9--9--9--9--9---7--5-----9--9--9--9--9--9----------------------------15p14p12|
Db:----------------------------------------------------------------------------------------|
Ab:----------------------------------------------------------------------------------------|
Eb:----------------------------------------------------------------------------------------|

                                                               2 times
:--------------------------------------------------------|-----------------------------|
:----------12--------------------------------------------|--13--10-10------10----------|
:-12-14-15----15-14-12-14p12----12h14p12-14p12--12-14b~~-|--12--9--9----12-9--12-------|
:----------------------------14--------------------------|--------------12----12-10----|
:--------------------------------------------------------|--------------------------12-|
:--------------------------------------------------------|-----------------------------|


eb:-------------------------------------------------------|------------|
Bb:-12-12-12-12-12-12-12-12-12-12-12-12-12-12-12-12-12-12-|-12--10--12-|
Gb:-11-11-11-11-11-11-11-11-11-11-11-11-11-11-11-11-11-11-|-11--9---11-|
Db:-------------------------------------------------------|------------|
Ab:-------------------------------------------------------|------------|
Eb:-------------------------------------------------------|------------|


 verse
eb:---------------------------------------------------------|
Bb:---------------------------------------------------------|
Gb:---------------------------------------------------------|
Db:-9-9-9-9-9-9-9-9-9-9-9-9-9-9-9-9-9-9-9-9-9-9-9-9-9-9-9-9-|
Ab:-7-7-7-7-7-7-7-7-7-7-7-7-7-7-7-7-7-7-7-7-7-7-7-7-7-7-7-7-|
Eb:-0-0-0-0-0-0-0-0-0-0-0-0-0-0-0-0-0-0-0-0-0-0-0-0-0-0-0-0-|


uh baby                
:-------------------------|
:-------------------------|
:-------------------------|
:-------------------------|
:-9-9-9-9-9-9--5--12------|
:-7-7-7-7-7-7--3--10------|


lets *** all night
:--------------|
:--------------|
:--------------|
:--------------|
:-9-9-9-9-9-9--|
:-7-7-7-7-7-7--|


:---------|
:---------|
:---------|
:---------|
:-8--7--5-|
:-6--5--3-|

eb:----------------------------------|
Bb:----------------------------------|
Gb:----------------------------------|
Db:----------------------------------|
Ab:-2-2-2--8-7-7-7-5--2-2-2----5-7-5-|
Eb:-0-0-0--6-5-5-5-3--0-0-0-0--3-5-3-|

      slide down
:--------|
:--------|
:--------|
:-9-7-9/-|
:-7-5-7/-|
:--------|
            
Submit corrections

comments powered by Disqus
↑ Back to top | Zeke Tabs for All Night. Lyrics for acoustic guitar and electric guitar. Tablatures and chords are parodies/interpretations of the original songs. You may use it for private study, scholarship, research or language learning purposes only