» » »

Aces High Tabs (ver.1)

Artists:  A B C D E F G H I J K L M N O P Q R S T U V W X Y Z # 

Aces High Tabs (ver.1)

Zeke
Rating:
0/5 (0 votes)

Hard to play? Try these video lessons and learn fast.
                aces high


zeke






e:-------------------|
B:-------------------|
G:-------------------|
D:-------------------|
A:-2-----------1-0---|
E:-0--0-0-0-0------3-|

e:-------------|
B:-------------|
G:-------------|
D:-------------|
A:-7-7-7-7-7-7-|
E:-5-5-5-5-5-5-|


e:-------------------------------------------------------------------------------------|
B:----------9-11-12~~~~---16B~~~~~---16-16-16-16--16-19-16-19-16-19-16-----16----------|
G:-7B~~~~~~-------------------------------------------------------------18----18~~~~~--|
D:-------------------------------------------------------------------------------------|
A:-------------------------------------------------------------------------------------|
E:-------------------------------------------------------------------------------------|

e:-------------------------------------------------------------------|
B:----------9-11-12~~~~---16B~~~~~-----------------------------------|
G:-7B~~~~~~----------------------------------------------------------|
D:-------------------------------------------------------------------|
A:-----------------------------------9-9-9-9-9-9-9-9-9-9-9-9-8-7--5--|
E:-----------------------------------7-7-7-7-7-7-7-7-7-7-7-7-6-5--3--|

e:-------------------|
B:-------------------|
G:-------------------|
D:-------------------|
A:-2-----------1-0---|
E:-0--0-0-0-0------3-|

e:-------------|
B:-------------|
G:-------------|
D:-------------|
A:-7-7-7-7-7-7-|
E:-5-5-5-5-5-5-|


e:-------------------------------------------------------------------------------------|
B:----------9-11-12~~~~---16B~~~~~---16-16-16-16--16-19-16-19-16-19-16-----16----------|
G:-7B~~~~~~-------------------------------------------------------------18----18~~~~~--|
D:-------------------------------------------------------------------------------------|
A:-------------------------------------------------------------------------------------|
E:-------------------------------------------------------------------------------------|

e:-------------------------------------------------------------------|
B:----------9-11-12~~~~---16B~~~~~-----------------------------------|
G:-7B~~~~~~----------------------------------------------------------|
D:-------------------------------------------------------------------|
A:-----------------------------------9-9-9-9-9-9-9-9-9-9-9-9-8-7--5--|
E:-----------------------------------7-7-7-7-7-7-7-7-7-7-7-7-6-5--3--|

:-----------|
:-----------|
:-----------|
:-----------|
:-2---------|
:-0---------|


e:----------|
B:----------|
G:----------|
D:--4--9\---|
A:--2--7\---|
E:----------|
            
Hard to play? Try these video lessons and learn fast. | Correct




comments powered by Disqus
↑ Back to top | Tablatures and chords are parodies/interpretations of the original songs. You may use it for private study, scholarship, research or language learning purposes only