>
 >
I Wish I Never

I Wish I Never Guitar Tabs

Zee Avi - I Wish I Never chords, tabs, tablatures, lyrics

Guitar lessons | Add/correct | Request | Top 50 tabs Artists:  A B C D E F G H I J K L M N O P Q R S T U V W X Y Z 0-9

I Wish I Never Guitar Tabs – Zee Avi

CD, Sheet music, Poster

Do you like I Wish I Never? Share with your friends now
Tabs
I Wish I Never by Zee Avi

Standard Tuning.

Chords: This is the way she plays it. The chords are right. However, if you prefer, you 
can play them in Bar form.

Aadd9: x02200
C#7:     x43404
Bm7:     x24230
E7:        xx2434
Fm7:     242x00
D:         x5445x
Dm:      x4345x

Bar/Open:
Aadd9: x02200
C#7:     x46464
Bm7:     x24232
E7:        020100
Fm7:     242222
D:         xx0232
Dm:      xx0231

Picking Progession:
e--------------------------0---------------|----------------------0-----------------|
B-----------------0------------0-----------|-------------0-----------0--------------|
G------------2---------------------2-------|---------2------------------2-----------|
D--------2---------------------------------|------2---------------------------------|
A----0-------------------------------------|--0-------------------------------------|
E------------------------------------------|----------------------------------------|

e------------------------4----------------|-----------------------4--------------------|
B---------------0----------0--------------|------------0-------------0-----------------|
G-----------4----------------4------------|---------4--------------------4-------------|
D-------3---------------------------------|------3-------------------------------------|
A----4------------------------------------|---4----------------------------------------|
E-----------------------------------------|--------------------------------------------|

e-----------------------0-----------------|---------------------------0---------------|
B--------------3-----------3--------------|----------------3-------------3------------|
G----------2-----------------2------------|------------2-------------------2----------|
D-------4---------------------------------|--------4----------------------------------|
A----2------------------------------------|-----2-------------------------------------|
E-----------------------------------------|-------------------------------------------|

e------------------4-----------------------|------5-----------------4--------------|
B-------------3----------------3-----------|----------3----------------3-----------|
G--------4-------------------------4-------|--------------4---------------4--------|
D----2-------------------------------------|---------------------------------------|
A------------------------------------------|---------------------------------------|
E------------------------------------------|---------------------------------------|


Aadd9                 C#7
Watching phantom planes go by
             Bm7                                   E7
Sinking into the darkness of the night
Aadd9              C#7        Bm7
The lady in the clouds is lyin' down
                                     E7
Beside Chopin while he plays her the words of heaven

Aadd9     C#7                        Bm7                                   E7
Red light beaming just a little over the green familiar hill
Add9          C#7                 Bm7                                    E7
I still don't know how to control how I think, or speak, or feel

So...

Add9       C#7                       Bm7
I wish I'd never fallen in love…
     E7
So deeply
Add9     C#7                 Bm7
I wish I never knew that love…
          E7
Actually exists

I got your letter today
Told me that you're back in therapy
And I don't know why but it still concerned me

But they tell me what's the point of hurting
Over something, that was nothing at all
I never used to be so gullible and vulnerable
But I guess with love nothing's impossible

So...

I wish I'd never fallen in love...
So deeply
I wish I never knew that love...
Actually exists

Bm7                       C#7                                             Fm7
You said that I was good for you but you pushed me aside
                                  C#7
Now tell me does that seem right?
Bm7                    C#7
I've fallen for a pessimist
                            Fm7
But God help me I tried
                  D     Dm
To get you out of it

So...

I wish I'd never fallen in love...
So deeply
I wish I never knew that love...
Actually exists...

But I do now...
But I do now...

End on Add9





Comments


Popular Zee Avi tabs & chords
Bitter Heart 2 Chords
Kantoi Chords
Kantoi 1 Chords
Milestone Moon Chords
No Christmas For Me Chords
No Christmas For Me 1 Chords
Bitter Heart Tabs
Bitter Heart 1 Tabs
Bitter Heart Ukulele
Darlin It Aint Easy Ukulele


Song lyrics



↑ Back to top | Tablatures and chords are parodies/interpretations of the original songs. You may use it for private study, scholarship, research or language learning purposes only
© 2014 AZChords.com Contact us | Privacy policy | DMCA | Add/correct tabs | Request tabs | Top 50 tabs