» » »

Where The Naked Girlies Dance Tabs (ver.1)

Artists:  A B C D E F G H I J K L M N O P Q R S T U V W X Y Z # 

Where The Naked Girlies Dance Tabs (ver.1)

Zebrahead
Rating:
0/5 (0 votes)

Hard to play? Try these video lessons and learn fast.
                After Wasted on the album this is that weird little Egyptian type
thing with the band messing about.


* * Repeat Once Unless Stated


E||------------------------------|----------------------------------|
B||------------------------------|----------------------------------|
G||--7--9--9--9-9-9-9-10-9-7-----|--7--10--10--10-10-10-10-11-10-7--|
D||---------------------------9--|----------------------------------|
A||------------------------------|----------------------------------|
E||------------------------------|----------------------------------|

                                x5
E||-------------------------------|-----|
B||*-----------------------------*|-----|
G||---------------------7---------|--7--|
D||--7-9-10-9-7--7-9-10---10-9-7--|--9--|
A||*-----------------------------*|-----|
E||-------------------------------|-----|
            
Hard to play? Try these video lessons and learn fast. | Correct




comments powered by Disqus
↑ Back to top | Tablatures and chords are parodies/interpretations of the original songs. You may use it for private study, scholarship, research or language learning purposes only