>
 >
What's Going On? 1

What's Going On? 1 Guitar Tabs

Zebrahead - What's Going On? 1 chords, tabs, tablatures, lyrics

Guitar lessons | Add/correct | Request | Top 50 tabs Artists:  A B C D E F G H I J K L M N O P Q R S T U V W X Y Z 0-9

What's Going On? 1 Guitar Tabs – Zebrahead

CD, Sheet music, Poster

Do you like What's Going On? 1? Share with your friends now
Bass TabsTabsTabs v2
Intro - Guitar 1 
e|---17---------------------------17-------------------------------------------|
B|------15---------------------------15----------------------------------------|
G|---------14-11h12p11-----------------14-11h12h11-----------------------------|
D|---------------------12-14-12--------------------12-14-12--------------------|
A|-----------------------------------------------------------------------------|
E|-----------------------------------------------------------------------------|

e|---17------------------------------------------------------------------------|
B|------15---------------------------------------------------------------------|
G|---------14-11h12p11---------------------------------------------------------|
D|---------------------12-14-12---13/14-12~------------------------------------|
A|-----------------------------------------------------------------------------|
E|-----------------------------------------------------------------------------|

Intro - Guitar 2
e|-----------------------------------------------------------------------------|
B|-----------------------------------------------------------------------------|
G|---4444-7777------7777--4444-7777------7777----------------------------------|
D|---4444-7777-5555-7777--4444-7777-5555-7777----------------------------------|
A|---2222-5555-5555-5555--2222-5555-5555-5555----------------------------------|
E|-------------3333-----------------3333---------------------------------------|

Verse - Guitar 1
e|-------------16/17--------16/17--------16/17---------------------------------|
B|---R-------------------------------------------------------------------------|
G|---E---13/15--------13/15--------13/15---------------------------------------|
D|---S-------------------------------------------------------------------------|
A|---T-------------------------------------------------------------------------|
E|-----------------------------------------------------------------------------|

Verse - Guitar 2 
e|-----------------------------------------------------------------------------|
B|----------------------------------------------R------------------------------|
G|---4444-7777------7777--4444-7777------7777---E--------7777------------------|
D|---4444-7777-5555-7777--4444-7777-5555-7777---S---5555-7777------------------|
A|---2222-5555-5555-5555--2222-5555-5555-5555---T---5555-5555------------------|
E|-------------3333-----------------3333------------3333-----------------------|

e|-----------------------------------------------------------------------------|
B|-----------------------------------------------------------------------------|
G|---4444-7777------7777--4444-7777------7777--4444-7777------7777-------------|
D|---4444-7777-5555-7777--4444-7777-5555-7777--4444-5555-5555-7777-------------|
A|---2222-5555-5555-5555--2222-5555-5555-5555--2222-5555-5555-5555-------------|
E|-------------3333-----------------3333-----------------3333------------------|


Prechorus - Guitar 1 + Guitar 2
e|-----------------------------------------------------------------------------|
B|-----------------------------------------------------------------------------|
G|---55555555----------7777777777777777-55555555-------------------------------|
D|---55555555-55555555-7777777777777777-55555555-55555555-77777777-------------|
A|---33333333-55555555-5555555555555555-33333333-55555555-77777777-------------|
E|------------33333333---------------------------33333333-55555555-------------|


Chorus - Guitar 1
e|---17-----17----17----15----15----15----15----17----17----15----15----15-----|
B|-----15-----15----15----15----15----15----15----15----15----15----15----14---|
G|--------14----14----------14----14----------14----14----------14----14-------|
D|-----------------------------------------------------------------------------|
A|-----------------------------------------------------------------------------|
E|-----------------------------------------------------------------------------|

e|---14----14----14----15-----17----17-----------------------------------------|
B|-----15----15----15----15-----15----14---------------------------------------|
G|-------14----14----------14-----14-------------------------------------------|
D|-----------------------------------------------------------------------------|
A|-----------------------------------------------------------------------------|
E|-----------------------------------------------------------------------------|

Chorus - Guitar 2
e|-----------------------------------------------------------------------------|
B|-----------------------------------------------------------------------------|
G|---77777777----------7777777-------------------------------------------------|
D|---77777777-55555555-7777777-55555555-44444444-5555-7777---------------------|
A|---55555555-55555555-5555555-55555555-44444444-5555-7777---------------------|
E|------------33333333---------33333333-22222222-3333-5555---------------------|

Intro - Guitar 1 
e|---17---------------------------17-------------------------------------------|
B|------15---------------------------15----------------------------------------|
G|---------14-11h12p11-----------------14-11h12h11-----------------------------|
D|---------------------12-14-12--------------------12-14-12--14-12/16----------|
A|-----------------------------------------------------------------------------|
E|-----------------------------------------------------------------------------|

Intro - Guitar 2
e|-----------------------------------------------------------------------------|
B|-----------------------------------------------------------------------------|
G|---4444-7777------7777--4444-7777------7777----------------------------------|
D|---4444-7777-5555-7777--4444-7777-5555-7777----------------------------------|
A|---2222-5555-5555-5555--2222-5555-5555-5555----------------------------------|
E|-------------3333-----------------3333---------------------------------------|

Verse - Guitar 1
e|-------------16/17--------16/17--------16/17------16/17---19-17--------------|
B|---R-------------------------------------------------------------------------|
G|---E---13/15--------13/15--------13/15-------13/15---------------------------|
D|---S-------------------------------------------------------------------------|
A|---T-------------------------------------------------------------------------|
E|-----------------------------------------------------------------------------|

Verse - Guitar 2 
e|-----------------------------------------------------------------------------|
B|----------------------------------------------R------------------------------|
G|---4444-7777------7777--4444-7777------7777---E--------7777------------------|
D|---4444-7777-5555-7777--4444-7777-5555-7777---S---5555-7777------------------|
A|---2222-5555-5555-5555--2222-5555-5555-5555---T---5555-5555------------------|
E|-------------3333-----------------3333------------3333-----------------------|

e|-----------------------------------------------------------------------------|
B|-----------------------------------------------------------------------------|
G|---4444-7777------7777--4444-7777------7777--4444-7777------7777-------------|
D|---4444-7777-5555-7777--4444-7777-5555-7777--4444-5555-5555-7777-------------|
A|---2222-5555-5555-5555--2222-5555-5555-5555--2222-5555-5555-5555-------------|
E|-------------3333-----------------3333-----------------3333------------------|

Prechorus

Chorus

Verse - Guitar 1
e|--------------------17----------------------------------17-------------------|
B|------------15---------15-------------------------15-------15----------------|
G|---14--11-------11--------11--12----------14--11-----11-------11--12--11-----|
D|----------------------------------14--12---------------------------------12--|
A|-----------------------------------------------------------------------------|
E|-----------------------------------------------------------------------------|

Prechorus Guitar 1
e|-----------------------------------------------------------------------------|
B|-----------------------------------------------------------------------------|
G|---14-14-14-14-11-11-11-12-12-14-14-14-14-11-11-11-12-12---------------------|
D|-----------------------------------------------------------------------------|
A|-----------------------------------------------------------------------------|
E|-----------------------------------------------------------------------------|
    pm....................................................

e|-----------------------------------------------------------------------------|
B|-----------------------------------------------------------------------------|
G|---14-14-14-14-11-11-11-12-12------------------------------------------------|
D|------------------------------14-14-14-14-12-12-12-12------------------------|
A|-----------------------------------------------------------------------------|
E|-----------------------------------------------------------------------------|
    pm..................................................



Chorus x2

Outro - Guitar 1
e|--------------------17----------------------------------17-------------------|
B|------------15---------15-------------------------15-------15----------------|
G|---14--11-------11--------11--12----------14--11-----11-------11--12--11-----|
D|----------------------------------14--12---------------------------------12--|
A|-----------------------------------------------------------------------------|
E|-----------------------------------------------------------------------------|

Outro - Guitar 2 
e|-----------------------------------------------------------------------------|
B|-----------------------------------------------------------------------------|
G|---4~---7~-------7~---4~---7~--------7~---4~---7~--------7~------------------|
D|---4~---7~--5~---7~---4~---7~---5~---7~---4~---7~---5~---7~------------------|
A|---2~---5~--5~---5~---2~---5~---5~---5~---2~---5~---5~---5~------------------|
E|------------3~------------------3~------------------3~-----------------------|

e|-----------------------------------------------------------------------------|
B|-----------------------------------------------------------------------------|
G|---4~---7~-------7~---4~---7~--------7~---4~---7~--------7~------------------|
D|---4~---7~--5~---7~---4~---7~---5~---7~---4~---7~---5~---7~------------------|
A|---2~---5~--5~---5~---2~---5~---5~---5~---2~---5~---5~---5~------------------|
E|------------3~------------------3~------------------3~-----------------------|

Ending - Guitar 1
e|---------17------------------------------------------------------------------|
B|-----15----15----------------------------------------------------------------|
G|---14--14----14-12-11-12-----------------------------------------------------|
D|-------------------------12~-------------------------------------------------|
A|-----------------------------------------------------------------------------|
E|-----------------------------------------------------------------------------|

There we go! hope people find that some help!





Comments


Popular Zebrahead tabs & chords
Falling Apart Bass Tabs
Mike Dexter Is A God Mike Dexter Is A Role Model Mike Dexter Is An Asshole Bass Tabs
Strength 2 Bass Tabs
Time Bass Tabs
His World Tabs
I Am Tabs
Livin' Libido Loco Tabs
Mental Health Intro Tabs
Mike Dexter Is A God Mike Dexter Is A Role Model Mike Dexter Is An Asshole Tabs
Postcards From Hell 1 Tabs


Song lyrics



↑ Back to top | Tablatures and chords are parodies/interpretations of the original songs. You may use it for private study, scholarship, research or language learning purposes only
© 2014 AZChords.com Contact us | Privacy policy | DMCA | Add/correct tabs | Request tabs | Top 50 tabs