» » »

Zebrahead, What's Going On? Tabs (ver.1)

Artists:  A B C D E F G H I J K L M N O P Q R S T U V W X Y Z # 

What's Going On? Tabs (ver.1)

Zebrahead Tabs
 Rating:
4/5 (4 votes)
What's Going On? lessons Tabs too difficult? Try these video lessons and learn fast
                Zebrahead-Playmate of the Year
What's Goin' On?

<><><><><><><><><><><><><><><><><><><><><><><><><><><><><><><><>
<><><><><><><><><><><><><><><><><><><><><><><><><><><><><><><><>

INTRO
*play 4X's
e|--18----------------------------------|
B|-----16-------------------------------|
G|--------15--12-h13p---12--------------|
D|-------------------------13-h15p-13---|
A|--------------------------------------|
E|--------------------------------------|

*4th time, add this to the end:
D|--15~~~~~~13~~~~~~---|    (~=hold)

<><><><><><><><><><><><><><><><><><><><><><><><><><><><><><><><>

1ST VERSE: "whats goin on, whats goin on? ready or not."
*play 3X's
e|--------18\\\\\-|
B|----------------|
G|--///15---------|

<><><><><><><><><><><><><><><><><><><><><><><><><><><><><><><><>

AFTER 1ST CHORUS:
*play the intro twice, but THIS time, 
	at the end of the 2nd time play THIS at the end:
D|--13/15~~~~~-15/17~~~~~~----|	    (/=slide up)

<><><><><><><><><><><><><><><><><><><><><><><><><><><><><><><><>

2ND VERSE, SAME AS THE FIRST: 
*play 3X's
e|--------18\\\\\-|
B|----------------|
G|--///15---------|

*after the 3rd time, do dees:
e|--------18~~-20~-18~~~--|
B|------------------------|
G|--///15-----------------|

<><><><><><><><><><><><><><><><><><><><><><><><><><><><><><><><>

OUTRO: (crime stats at the end)
*play this twice, methinks
e|----------------------------------------------|
B|----------11-------------16-------------------|
G|-------12----12-------------15----------------|
D|----13------------------------18--17--15--13--|

*after he's done and says "what's goin on?" play dees:
e|-----------11---------------------|
B|--------11----11------------------|
G|--12-13-----------12-13-12-13-12--|
            
Submit corrections

comments powered by Disqus
↑ Back to top | Zebrahead Tabs for What's Going On?. Lyrics for acoustic guitar and electric guitar. Tablatures and chords are parodies/interpretations of the original songs. You may use it for private study, scholarship, research or language learning purposes only