» » »

Wasted Tabs (ver.1)

Artists:  A B C D E F G H I J K L M N O P Q R S T U V W X Y Z # 

Wasted Tabs (ver.1)

Zebrahead
Rating:
0/5 (0 votes)

Hard to play? Try these video lessons and learn fast.
                

intro:

---------------------------------|---------------------------
-------------------------------  |--------------------------
-4-4-4-4------------------------ |-4-4-4-4------------
-4-4-4-4-6-6-6-6-2-2-2-2-2-2-2-2 |-4-4-4-4-6-6-6-6-7-7-7-7-2-2-2-2
-2-2-2-2-6-6-6-6-2-2-2-2-2-2-2-2 |-2-2-2-2-6-6-6-6-7-7-7-7-2-2-2-2
---------4-4-4-4-0-0-0-0-0-0-0-0 |---------4-4-4-4-5-5-5-5-0-0-0-0

lead during intro:

|-----7-------7--------7-----------------
|-------7-------7--------7--9-7----------
|---8-------8-------8----------6/8------
|-9-------9--------9---------------------
|----------------------------------------
|----------------------------------------



verse: (just let b chord ring through first time)

  pm pm          pm pm          pm pm
|----------|   |----------|   |----------|   |----------|
|----------|   |----------|   |----------|   |----------|
|--4--4--4-|   |----------|   |----------|   |----------|
|--4--4--4-|4x |--2--2--2-|4x |--6--6--6-|4x |--4--4--4-|4x
|--2--2--2-|   |--2--2--2-|   |--6--6--6-|   |--4--4--4-|
|----------|   |--0--0--0-|   |--4--4--4-|   |--2--2--2-|

lead during verse: (first time)

|--------------------------------------------
|--4-----------4----------4------------------
|-----6--4--------6--4-------6--4----4--3----
|------------------------------------------4-
|--------------------------------------------
|--------------------------------------------

  (second time) with wah

|--------------------------------------------
|--------------------------------------------
|------------4--3-------4--3-------4--3--4/6-
|------------------3----------4--------------
|--------------------------------------------
|--------------------------------------------



prechorus: (with phazer)

 "And take my hand and show me how this all fits in your plan"
|-----------------------------------------------
|-----------------------------------------------
|----------------------4------------------------
|--2-----------4-------4----------------6-------
|--2-----------4-------2----------------6--------
|--0-----------2------------------------4-------


 "understand that i dont need you i just need to"
                  (pm get gradually louder)
|-------------------------------------------------
|-------------------------------------------------
|-----------------2-2-2-2-2-2-2-2-2-2-2-2-2-2-2-2--
|--2---------4----2-2-2-2-2-2-2-2-2-2-2-2-2-2-2-2--
|--2---------4----0-0-0-0-0-0-0-0-0-0-0-0-0-0-0-0--
|--0---------2-------------------------------------


chorus:

---------------------------------|---------------------------
-------------------------------  |--------------------------
-4-4-4-4------------------------ |-4-4-4-4------------
-4-4-4-4-6-6-6-6-2-2-2-2-2-2-2-2 |-4-4-4-4-6-6-6-6-7-7-7-7-2-2-2-2
-2-2-2-2-6-6-6-6-2-2-2-2-2-2-2-2 |-2-2-2-2-6-6-6-6-7-7-7-7-2-2-2-2
---------4-4-4-4-0-0-0-0-0-0-0-0 |---------4-4-4-4-5-5-5-5-0-0-0-0

Ali's rap: same as verse listen to cd for rythym

Ending:

--------------
-4------------
-4----6----2--
-2----6----2--
------4----0--
            
Hard to play? Try these video lessons and learn fast. | Correct




comments powered by Disqus
↑ Back to top | Tablatures and chords are parodies/interpretations of the original songs. You may use it for private study, scholarship, research or language learning purposes only