>
 >
Walkaway

Walkaway Guitar Tabs

Zebrahead - Walkaway chords, tabs, tablatures, lyrics

Guitar lessons | Add/correct | Request | Top 50 tabs Artists:  A B C D E F G H I J K L M N O P Q R S T U V W X Y Z 0-9

Walkaway Guitar Tabs – Zebrahead

CD, Sheet music, Poster

Do you like Walkaway? Share with your friends now
Tabs
Zebrahead - Walk Away


Intro/ Chorus
e|---------------------------------------|
B|---------------------------------------|
G|-4-4-4--------------9-9-9--------------|
D|-4-4-4--2-----------9-9-9--7-----------|
A|-2-2-2--2-----------7-7-7--7-----------|
E|--------0-(0-44556)--------5-(5-44556)-|
	    (--P.M.-)	       (--P.M.-)	

Verse 1 Gutiar 1
	  [Guitar 2  ]	    [Guitar 2  ]      [Guitar 2  ] (Gtr. 3 w/wha )
e|--------[8b(9)B(10)]------[8b(9)B(10)]------[8b(9)B(10)]-(-------------)-----|
B|---------------------------------------------------------(-------------)-----|
G|----7-7---------------7-7---------------7-7--------------(-------------)-----|
D|---7---5-------------7---5-------------7---5-------------(xx--x--------)-----|
A|--5-----------------5-----------------5------------------(xxx7xx78xx87x)-----|
E|-----------------------------------------------------------------------------|

Guitar 2 during second part of verse  
1)-----------------------------------
2)-----------------------------------
3)-7-7-7-7-7-7-6---------------------
4)-7-7-7-7-7-7-6---------------------
5)-5-5-5-5-5-5-4---------------------
6)-----------------------------------

Verse 2 Guitar 2 same

Verse 2 Guitar 3 w/wha funk - this is the basics he is adlibbing so have fun!!!  
e|-----------------------------------------------------------------------------|
B|-----------------------------------------------------------------------------|
G|-x5xx5x7xx5xxx5xx5xx5x7xx5xxx5xx5xx5x7xx5xxx5xx5x5x5xx-----------------------|
D|-----------------------------------------------------x7x7x78xx87x7-----------|
A|-----------------------------------------------------------------------------|
E|-----------------------------------------------------------------------------|

Bridge
Guitar 3 w/ wah
-xx7xx7-
-xx7xx7-
-xx7xx7-
--------
--------
--------

Lead Guitar 1 with Bridge Guitar 3
----7-10-7----10-7h10----7-10-7----10-7h10---------
--7---------7----------7---------7-----------------
---------------------------------------------------
---------------------------------------------------
---------------------------------------------------
---------------------------------------------------


---7-10-7----10-7h10----7-10-7-10B(12)-10p7--------
10--------10---------10---------------------10-----
---------------------------------------------------
---------------------------------------------------
---------------------------------------------------
---------------------------------------------------





Comments


Popular Zebrahead tabs & chords
Morse Code For Suckers Bass Tabs
Real Me Bass Tabs
Dear You Far Away Chords
Get Nice 1 Tabs
His World 1 Tabs
His World 6 Tabs
Jagoff Tabs
Just The Tip Tabs
Photographs 2 Tabs
Rated U For Ugly 1 Tabs


Song lyrics



↑ Back to top | Tablatures and chords are parodies/interpretations of the original songs. You may use it for private study, scholarship, research or language learning purposes only
© 2014 AZChords.com Contact us | Privacy policy | DMCA | Add/correct tabs | Request tabs | Top 50 tabs