» » »

The Jokes On You Tabs (ver.1)

Artists:  A B C D E F G H I J K L M N O P Q R S T U V W X Y Z # 

The Jokes On You Tabs (ver.1)

Zebrahead
Rating:
0/5 (0 votes)

Hard to play? Try these video lessons and learn fast.
                Usually this song is played half step down, but i prefer drop-d tuning, but only because 
i'm too lazy to tune my guitar xD
Have fun!


Guitar 1
(Intro/Pre-Chorus)
E||-----------------------|--------------------------|
B||-----------------------|--------------------------|
G||-----------------------|--------------------------|
D||-----------------------|-----------------------3--|
A||-----------------8\----|--1--3--1--3-----1--------|
D||-----------------------|--------------------------|

E||--------------------------|--------------------------|
B||--------------------------|--------------------------|
G||--------------------------|--------------------------|
D||--L--4--3--1-----1--------|-----------------------3--|
A||--------------4-----4--3--|--1--3--1--3-----1--------|
D||--------------------------|--------------------------|

Guitar 2
(Intro/Pre-Chorus/Solo)


E||--------------------------|--------------------------|
B||--------------------------|--------------------------|
G||--3--3--3--3--3--3--3--3--|--------------------------|
D||--3--3--3--3--3--3--3--3--|--6--6--6--6--6--6--6--6--|
A||--1--1--1--1--1--1--1--1--|--6--6--6--6--6--6--6--6--|
D||--------------------------|--6--6--6--6--6--6--6--6--|

E||--------------------------|--------------------------|
B||--------------------------|--------------------------|
G||--------------------------|--------------------------|
D||--1--1--1--1--1--1--1--1--|--4--4--4--4--6--6--6--6--|
A||--1--1--1--1--1--1--1--1--|--4--4--4--4--6--6--6--6--|
D||--1--1--1--1--1--1--1--1--|--4--4--4--4--6--6--6--6--|

(Verse)

E||--------------------------|--------------------------|
B||--------------------------|--------------------------|
G||--3--3--------------3--3--|--------------------------|
D||--3--3--------------3--3--|--6--6--------------6--6--|
A||--1--1--------------1--1--|--6--6--------------6--6--|
D||--------------------------|--6--6--------------6--6--|

E||--------------------------|--------------------------|
B||--------------------------|--------------------------|
G||--------------------------|--------------------------|
D||--1--1--------------1--1--|--4--4--------6--6--------|
A||--1--1--------------1--1--|--4--4--------6--6--------|
D||--1--1--------------1--1--|--4--4--------6--6--------|

(Chorus)

E||--------------------------|--------------------------|
B||--------------------------|--------------------------|
G||--3--3--3--3--3--3--3--3--|--6--6--6--6--6--6--6--6--|
D||--3--3--3--3--3--3--3--3--|--6--6--6--6--6--6--6--6--|
A||--1--1--1--1--1--1--1--1--|--4--4--4--4--4--4--4--4--|
D||--------------------------|--------------------------|

E||--------------------------|--------------------------|
B||--------------------------|--------------------------|
G||--------------------------|--------------------------|
D||--4--4--4--4--4--4--4--4--|--6--6--6--6--6--6--6--6--|
A||--4--4--4--4--4--4--4--4--|--6--6--6--6--6--6--6--6--|
D||--4--4--4--4--4--4--4--4--|--6--6--6--6--6--6--6--6--|

Couldn't figure out the Solo yet, sry!
            
Hard to play? Try these video lessons and learn fast. | Correct




comments powered by Disqus
↑ Back to top | Tablatures and chords are parodies/interpretations of the original songs. You may use it for private study, scholarship, research or language learning purposes only